» » »

One Truth Tabs (ver.1)

Artists:  A B C D E F G H I J K L M N O P Q R S T U V W X Y Z # 

One Truth Tabs (ver.1)

Dispatch
Rating:
0/5 (0 votes)

Hard to play? Try these video lessons and learn fast.
                Dispatch/One Fell Swoop
Under the Radar/Patchwork CD

------------------|
------------------|
-------------5h7--|	x1
---------5-7------|
-5-5-5-7----------|
------------------|

 Dm	 Dm  	 Dm	 Dm
-5-------5-------5-------5--|
-6-------6-------6-------6--|
-7-------7-------7-------7--|	x2
-7-------7-------7-------7--|
-5-------5-------5-------5--|
----------------------------|

--------------------------------------------------|
--------------------------------------------------|
-------------5h7-----------------------------5h7--|	x1
---------5-7--------------5-7-5----------5-7------|
-5-5-5-7----------5-5-5-7--------5-5-5-7----------|
--------------------------------------------------|

**BASS**

 Dm	 Dm  	 Dm	 Dm
-5-------5-------5-------5--|
-6-------6-------6-------6--|
-7-------7-------7-------7--|	x2
-7-------7-------7-------7--|
-5-------5-------5-------5--|
----------------------------|

**VOCAL HARMONY**

 Dm	 Dm  	 Dm	 Dm
-5-------5-------5-------5--|
-6-------6-------6-------6--|
-7-------7-------7-------7--|	x4
-7-------7-------7-------7--|
-5-------5-------5-------5--|
----------------------------|
            
Hard to play? Try these video lessons and learn fast. | Correct




comments powered by Disqus
↑ Back to top | Tablatures and chords are parodies/interpretations of the original songs. You may use it for private study, scholarship, research or language learning purposes only