» » »

Dispatch, Here We Go Bass tabs (ver.1)

Artists:  A B C D E F G H I J K L M N O P Q R S T U V W X Y Z # 

Here We Go Bass tabs (ver.1)

Dispatch Tabs
 Rating:
4.2/5 (5 votes)
Here We Go lessons Tabs too difficult? Try these video lessons and learn fast
1
                Here We Go- Dispatch (bang bang version)

-First try at writing up tabs, but I think its pretty close.

Intro:
G|-----------------------------------------------------|
D|-----------------------------------------------------|
A|-----------------------------------------------------|
E|--7-7-7--7-7-7\5--5-5--5-5-5--2-2-2--2-2-2--0-0-0--0-|

|-------------------------------------------------------------------------|
|-------------------------------------------------------------------------|
|-------------------------------------------------------------------------|
|--7-7--7-7--7-7-7\5--5--5-5--5-5-5--2-2--2-2--2-2-2--0-0--0-0--0-0-0-0-0-|


|-------------------------------------------------------------|
|-------------------------------------------------------------|
|-------------5-7------------0-2---5-7-----5-7-----------0 *2-|
|--7-7-5-5h7------2-2-0-0h2------7-----5h7-----2-2-0-0-2------|

Chorus: (here we go)

|-------------------------------------------------------------|
|-------------------------------------------------------------|
|-------------5-7------------0-2---5-7-----5-7-----------0 *2-|
|--7-7-5-5h7------2-2-0-0h2------7-----5h7-----2-2-0-0-2------|


|---------------------------------------------------------|
|----------------------------------------------------7----| (not sure about last fill)
|-------------5-7------------0-2-----------5-7------5-7---|
|--7-7-5-5h7------2-2-0-0h2------7-7-5-5h7-----2-2-7---7--|

Verse

|--------------------------------------------------------------|
|--------------------------------------------------------------|
|-------------5-7------------0-2---5-7-----5-7-----------0  *2-|
|--7-7-5-5h7------2-2-0-0h2------7-----5h7-----2-2-0-0-2-------|

|-------------------|
|-------------------|
|----5--------------| (triplets)
|--7---7-5-7-5-2----|

|-------------------------------------------------------------|
|-------------------------------------------------------------|
|-------------5-7------------0-2---5-7-----5-7-----------0 *2-|
|--7-7-5-5h7------2-2-0-0h2------7-----5h7-----2-2-0-0-2------|

Chorus 2
|---------------------------------------------------------------|
|---------------------------------------------------------------|
|-----------------5-7------------0-2---5-7-----5-7-----------0--|
|--7-7-7/-5-5-5/------2-2-0-0h2------7-----5h7-----2-2-0-0-2----|

|----------------------------------------------------------|
|----------------------------------------------------------|
|-------------5-7------------0-2---5-7-----5-7-----------0-|
|--7-7-5-5h7------2-2-0-0h2------7-----5h7-----2-2-0-0-2---|

|-------------------------------------------------------------|
|-------------------------------------------------------------|
|-------------5-7------------0-2-----------5-7------------0-2-|
|--7-7-5-5h7------2-2-0-0h2------7-7-5-5h7------2-2-0-0h2-----|

Verse 2
|--------------------------------------------------------|
|--------------------------------------------------------|
|----5-7-----5-7-----------0-----------5-7-----------0-2-|
|--7-----5h7-----2-2-0-0-2---7-7-5-5h7-----2-2-0-0h2-----|

|-------------------------------------------------------------|
|-------------------------------------------------------------|
|-------------5-7------------0-2-----------5-7------------0-2-|
|--7---5-5h7------2-2-0-0h2------7-7-5-5h7------2-2-0-0h2-----|

|-----------------------------------|
|-----------------------------------|
|------------------------0-2------2-|
|--7----5----2----0--0-2------------|

|-------------------------------------------------------------|
|-------------------------------------------------------------|
|-------------5-7------------0-2-----------5-7----------------|
|--7-7-5-5h7------2-2-0-0h2------7---5-5h7------2-2-2-2-3-3-3-|

Breakdown so we...

|------------------------------------------|
|--------------------7----------9-----9----|
|----------------9-9-----9----9-----9------|
|--7-7-7-7-7-7-7-------7----7-----7------7-|

...make your decision

|----------------------------------------------|
|----------------9-7-------------7-5-----------|
|--------------9-----9-7-------7-----7-5-------|
|--7-7-7-7-7-7-----------9-7-5-----------7-5-7-|

|--------------------|
|--------------------| *2 (held)
|--------------------|
|--7----5----2----0--|

Verse 3

|--------------------|
|--------------------| (stacatto)
|--------------------|
|--7----5----2----0--|

|--------------------|
|--------------------|
|----5-----0---0-----|
|--7---7-2---2---0---|

|-------------------------------------------------------------|
|-------------------------------------------------------------|
|-------------5-7------------0-2-----------5-7------------0-2-|
|--7---5-5h7------2-2-0-0h2------7-7-5-5h7------2-2-0-0h2-----|

Chorus

|-------------------------------------|
|--------------------------------- *4-|
|------------------------------0-2----|
|--7---7/-5-5-5/----2-2-0-0h2---------|

Outro

|--------------------------------------------|
|----------------9-7-------------7-5---------|
|--------------9-----9-7-------7-----7-5-----|
|--7-7-7-7-7-7-----------9-7-5-----------7-5-|

|-------------------------------------------------|
|------------------9-7-------------7-5------------|
|----------------9-----9-7-------7-----7-5--------|
|--7--7-7-7-5-2------------9-7-5-----------7-5-7--|

|---------------------------------|
|---------------9-7---------------|
|-------------------9-7-----------|
|--7-7-7-5-2------------9-7-5-2-7-|
            
Submit corrections

comments powered by Disqus
↑ Back to top | Dispatch Bass for Here We Go. Lyrics for acoustic guitar and electric guitar. 1 Tablatures and chords are parodies/interpretations of the original songs. You may use it for private study, scholarship, research or language learning purposes only