>
 >
Escala De Violencia 1

Escala De Violencia 1 Guitar Tabs

Disidente - Escala De Violencia 1 chords, tabs, tablatures, lyrics

Guitar lessons | Add/correct | Request | Top 50 tabs Artists:  A B C D E F G H I J K L M N O P Q R S T U V W X Y Z 0-9

Escala De Violencia 1 Guitar Tabs – Disidente

CD, Sheet music, Poster

Do you like Escala De Violencia 1? Share with your friends now
TabsTabs v2
-------------------------------------------------------------------------------
                             ESCALA DE VIOLENCIA - Disidente
-------------------------------------------------------------------------------


Afinación: bemol, 6ta cuerda en Drop D

Nota:
Si no afinas toda la guitarra primero en bemol y luego la 6ta en D no va a sonar.



INTRO (3 veces)
e|-----------------------------------------------------------------------------|
B|-----------------------------------------------------------------------------|
G|-----------------------------------------------------------------------------|
D|-----------------------------------------------------------------------------|
A|-----------------------------------------------------------------------------|
E|-----0---7---7---0---5---7---0---7-------------------------------------------|



e|---------------------------------------------------------------------------|
B|---------------------------------------------------------------------------|
G|---------------------------------------------------------------------------|
D|----------------------------5-----7----------------------------------------|
A|--------------------5---7--------------------------------------------------|
E|---0---7---7---0-----------------------------------------------------------|

   3 veces (D A G A )
e|---------------------------------------------------------------------------|
B|------------------------0--------------------------------------------------|
G|------------------------0--------------------------------------------------|
D|---0--7--7---0---5--7---0--7-----------------------------------------------|
A|---0--7--7---0---5--7---0--7-----------------------------------------------|
E|---0--7--7---0---5--7---0--7-----------------------------------------------|

e|---------------------------------------------------------------------------|
B|---------------------------------------------------------------------------|
G|---------------------------------------------------------------------------|
D|------------5----7---------------------------------------------------------|
A|----5---7------------------------------------------------------------------|
E|---------------------------------------------------------------------------|

    (PALM MUTE) verso 
 ...en esta escala de violencia y gas ............
e|---------------------------------------------------------------------------|
B|---------------------------------------------------------------------------|
G|---------------------------------------------------------------------------|
D|--9---------------------------------------------------------7--7--7--7-----|
A|--7---------------------------------------------------------5--5--5--5-----|
E|--7---------------------------------------------------------5--5--5--5-----|


   COROS (repetir 4 veces) GUITARRA 1
e|---------------------------------------------------------------------------|
B|---------------------------------------------------------------------------|
G|---5--5--5--5---4--4--4--4-------------------------------------------------|
D|---5--5--5--5---5--5--5--5-------------------------------------------------|
A|---3--3--3--3---3--3--3--3-------------------------------------------------|
E|---------------------------------------------------------------------------|

    COROS GUITARRA 02 (repetir 4 veces) 
e|---------------------------------------------------------------------------|
B|---------------------------------------------------------------------------|
G|---5--5--5--5---X--X--X--X-------------------------------------------------|
D|---5--5--5--5---5--5--5--5-------------------------------------------------|
A|---3--3--3--3---3--3--3--3-------------------------------------------------|
E|---------------------------------------------------------------------------|

    repetir 2 veces
e|---------------------------------------------------------------------------|
B|---------------------------------------------------------------------------|
G|---5-5-5-5-4-4-4-4--5-5-5-5-2-2-2-2----------------------------------------|
D|---2-2-2-2-2-2-2-2--0-0-0-0-0-0-0-0----------------------------------------|
A|---------------------------------------------------------------------------|
E|---------------------------------------------------------------------------|

    COROS GUITARRA 02 (repetir 2 veces) 
e|---------------------------------------------------------------------------|
B|---------------------------------------------------------------------------|
G|---------------------------------------------------------------------------|
D|---------------------------------------------------------------------------|
A|----0-0-0-0--10--10-12--12--12---------------------------------------------|
E|---------------------------------------------------------------------------|

   interlude bateria y guitarra 
e|---------------------------------------------------------------------------|
B|---------------------------------------------------------------------------|
G|---------------------------------------------------------------------------|
D|---------------------------------------------------------------------------|
A|---------------------------------------------------------------------------|
E|----0----7---7---0---5---7--0---7----0----7----7------0----5-----7---------|


e|---------------------------------------------------------------------------|
B|---------------------------------------------------------------------------|
G|-----------9-9-9----9-9-9-----9-9-9----7-7---------------------------------|
D|---7-7-----7-7-7--5-7-7-7--5--7-7-7-0--5-5---------------------------------|
A|---5-5-----7-7-7--5-7-7-7--5--7-7-7-0--5-5---------------------------------|
E|---5-5-----7-7-7--5-7-7-7--5--7-7-7-0--5-5---------------------------------|


************************************

| /   slide up
| \   slide down
| h   hammer-on
| p   pull-off
| ~   vibrato
| +   harmonic
| x   Mute note
| b   Bend
| pb  Pre-bend
| br  Bend release
| pbr Pre-bend release
| brb Bend release bend

************************************





Comments


Popular Disidente tabs & chords
Decidir Chords
Ausente Tabs
Decadencia Tabs
Enemigo Tabs
Enemigo 1 Tabs
Girar Tabs
Gris Intro Tabs
Igual Que Tu Tabs
Monitor Tabs
Ayer Ukulele


Song lyrics



↑ Back to top | Tablatures and chords are parodies/interpretations of the original songs. You may use it for private study, scholarship, research or language learning purposes only
© 2014 AZChords.com Contact us | Privacy policy | DMCA | Add/correct tabs | Request tabs | Top 50 tabs