» » »

You And Your Friend Bass tabs (ver.1)

Artists:  A B C D E F G H I J K L M N O P Q R S T U V W X Y Z # 

You And Your Friend Bass tabs (ver.1)

Dire Straits
Rating:
0/5 (0 votes)

Hard to play? Try these video lessons and learn fast.
                Tuning: G D A E
Notes : Soft and smooth, ideal for the bass…

Intro
G-------------------------------------|
D-------------------------------------|
A---------3---------------------------|
E-1-1-3--------------1-1-3-----1-1-3--|

Solo
G-----------------0-0----0-------------------------|
D------------3-------------------------------------|
A-55---5-51-1--12-----3-3------5-----5----5--------|  X2
E---3-3-------------------2-3---44-3---23----5653--|


Verse 1
G-----------------0-0----0------------------------|
D------------3------------------------------------|
A-55---5-51-1--12-----3-3------5-----5----5-------|  X2
E---3-3-------------------2-3---44-3---23----653--|
Will you and your friend come around… 
                             Are you and your friend gonna get on down…
Will you and your friend come around…
                             Or will you and your friend gonna let me down…


Bridge 1
G------------------------------------------------|
D------------------------------------------------|
A-------3---------------3---------------3--------|
E-4-3-1---1-3-3---4-3-1---1-3-3---4-3-1---1-3-3--|
If you talk to one another… I am hungry man…  
                                   Let me know one way or the other…

G---------------------------|
D---------------------------|
A-----------3L--------------|
E--4-3-1L------------1-1-3--|
So I can make my plans…


Verse 2
G-----------------0-0----0---------------------------|
D------------3-------------------------------55------|
A-55---5-51-1--12-----3-3------5-----5----5-5---5----| X1 
E---3-3-------------------2-3---44-3---23---------43-|
Will you and your friend come around…
                           Or are you and your friend gonna get on down…

G-----------------0-0----0---------------------------|
D------------3---------------------------------------|
A-55---5-51-1--12-----3-3------5-----5----5----------|  X1
E---3-3-------------------2-3---44-3---23----653-----|
Will you and your friend come around…
                           Or are you and your friend gonna get on down…


Bridge 2
G------------------------------------------------|
D------------------------------------------------|
A-------3---------------3---------------3--------|
E-4-3-1---1-3-3---4-3-1---1-3-3---4-3-1---1-3-3--|
I relive the situation…
                                 Still see it in my mind…
G-------------------0----------------------------|
D------------------------------------------------|
A-----------3L--3----3-5--5-3-1-3-3-3L-3L--------|
E--4-3-1L-----------------------------------11-3-|
You got my imagination…
                                 Working over time…


Solo
G-----------------0-0----0-------------------------|
D------------3-------------------------------------|
A-55---5-51-1--12-----3-3------5-----5----5--------|  X1
E---3-3-------------------2-3---44-3---23----5653--|

G-----------------0-0----0---------------------------|
D------------3-------------------------------55------|
A-55---5-51-1--12-----3-3------5-----5----5-5---5----| X1 
E---3-3-------------------2-3---44-3---23---------43-|

G-----------------0-0----0-------------------------|
D------------3-------------------------------------|
A-55---5-51-1--12-----3-3------5-----5----5--------| X4 (Fade out)
E---3-3-------------------2-3---44-3---23----5653--|
            
Hard to play? Try these video lessons and learn fast. | Correct




comments powered by Disqus
↑ Back to top | Tablatures and chords are parodies/interpretations of the original songs. You may use it for private study, scholarship, research or language learning purposes only