» » »

Dire Straits, On Every Street Bass tabs (ver.2)

Artists:  A B C D E F G H I J K L M N O P Q R S T U V W X Y Z # 

On Every Street Bass tabs (ver.2)

Dire Straits Tabs
Rating:
0/5 (0 votes)
On Every Street lessons Tabs too difficult? Try these video lessons and learn fast
                Band : Dire Straits
Song Title : On every street 
Tune : Standards 
Comments : The way I play it, softly following the piano chords...


G------------|--------------|------------|--------|
D------------|--------------|------------|--------|
A---3--5--7--|--3----5--7---|--3----5--7-|--3---7-|
E------------|--------------|------------|--------|
There’s gotta be a record of you some place
You gotta be on somebodys books
The lowdown - a picture of your face
Your injured looks

G-----------|---------------|-------------|----------|---------|
D-----------|---------------|-------------|----------|---------|
A--3-----7--|--3------7--5--|-7----3--5—7-|--5L----3-|--33-5-0-|
E-----------|---------------|-------------|----------|---------|
The sacred and profane
The pleasure and the pain
Somewhere your fingerprints remain concrete
And its your face Im looking for on every street


G-------------|----------------------|
D-------------|----------------------|
A------7---5--|----------------------|
E--5---------3|----5---7--8--7---5L--|


G-----------|----------|------------|--------|----------|
D-----------|----------|------------|--------|----------|
A---3--5--7-|--3--5--7-|--3----5--7-|-3----7-|--3----7--|
E-----------|----------|------------|--------|----------|
A ladykiller - regulation tattoo
Silver spurs on his heels
Says - what can I tell you as Im standing next to you
She threw herself under my wheels
Oh its a dangerous road

G------------|--------------|-----------|----------|
D------------|--------------|-----------|----------|
A---3---7--5-|--7----3--5—7-|--5L----3--|--33-5-0--|
E------------|--------------|-----------|----------|
And a hazardous load
And the fireworks over liberty expode in the heat
And its your face Im looking for on every street


G-------------|--------------|-------------|-------------------|
D-------------|--------------|-------------|-------------------|
A------7---5--|--------------|------7---5--|-------------------|
E--5---------3|--5---7--8--7-|-5L--------3-|--5--7--8--7---5L--|


G------------|-----------|------------|---------|-------|
D------------|-----------|------------|---------|-------|
A-3----5--7--|-3----5--7-|--3----5--7-|--3----7-|-3--—7-|
E------------|-----------|------------|---------|-------|
A three-chord symphony crashes into space
The moon is hanging upside down
I dont know why it is Im still on the case
Its a ravenous town
And you still refuse to be traced


G----------|-----------|--------|---------|--------|--------|
D----------|-----------|--------|---------|--------|--------|
A--3--7--5-|-7--3--5—7-|-5L---3-|-33-5-0--|-5L---3-|-33-5-0-|
E----------|-----------|--------|---------|--------|--------|
Seems to me such a waste
And every victory has a taste thats bittersweet
And its your face Im looking for on every street 


Repeat 6 times 
G---------------|--------------|
D---------------|--------------|
A------7---5----|--------------|
E--5----------3-|--5---7--8--7-|

Then a little sharper until the end 
G-----------------|---------------|-
D-----------------|---------------|-
A-----7-7-5-5-----|---------------|-
E—5-5---------3-3-|-5-5-7-7-8-7-5-|-

G--------------|----------------------|
D--------------|----------------------|
A---7-7-5-5----|----------------------|
E-5---------3-3|-5-5-7-7-8-7--7-8-7-5-|
            
Submit corrections

comments powered by Disqus
↑ Back to top | Dire Straits Bass for On Every Street. Lyrics for acoustic guitar and electric guitar. Tablatures and chords are parodies/interpretations of the original songs. You may use it for private study, scholarship, research or language learning purposes only