» » »

Dire Straits, Once Upon A Time In The West Bass tabs (ver.3)

Artists:  A B C D E F G H I J K L M N O P Q R S T U V W X Y Z # 

Once Upon A Time In The West Bass tabs (ver.3)

Dire Straits Tabs
 Rating:
4/5 (4 votes)
Once Upon A Time In The West lessons Tabs too difficult? Try these video lessons and learn fast
                intro guitar only, then comes drums then bass begins:

G |--------------------------------|------------------------|
D |--------------------------------|------------------------|
A |--------------------------------|--------7-------5-5-----|
E |5-------------5-5-------------5-|5---8---------5-----8---|
   |       |       |       |        |       |       |

G |--------------------------------|------------------------|
D |--------------------------------|------------------------|
A |--------------------------------|--------7-------5-5-----|
E |5-------------5-5-------------5-|5---8---------5-----8---|
   |       |       |       |        |       |       |

G |------------------------|--------------------------------|
D |------------------------|--------------------------------|
A |------------------------|----5-----------------------2-3-|
E |5-------------5-5-------|3-------3-----3-3---------3-----|
   |       |       |        |       |       |       |

G |------------------------|------------------------|
D |------------------------|------------------------|
A |5-------------5-5-------|----------------7-7-5---|
E |--------------------8---|5-------------5-------5-|
   |       |       |        |       |       |

G |------------------------|--------------------------------|
D |------------------------|--------------------------------|
A |3-------3-----3-3-------|----3---------------------------|
E |----3-------------------|5-------5-----5-5-------5-------|
   |       |       |        |       |       |       |

G |--------------------------------|--------------------------------|
D |--------7-----------------------|--------------------------------|
A |5---8-------------------5-------|--------------------------------|
E |--------------3-3---6---------5-|5---8---5-----5-5-------------5-|
   |       |       |       |        |       |       |       |

// repeat verse 3x then break, then verse, then break, then verse then last two mesures 
of the verse several times to the end

// break
G |--------------------------------|--------------------------------|
D |--------------------------------|--------------------------------|
A |--------------------------------|--------------------------------|
E |10----1010----1010----1010----10|13----1313----1313----1313----13|
   |       |       |       |        |       |       |       |


G |----------------|--------------------------------|
D |----------------|--------------------------------|
A |----------------|--------------------------------|
E |5-------3-------|1-----------------------------5-|
   |       |        |       |       |       |
            
Submit corrections

comments powered by Disqus
↑ Back to top | Dire Straits Bass for Once Upon A Time In The West. Lyrics for acoustic guitar and electric guitar. Tablatures and chords are parodies/interpretations of the original songs. You may use it for private study, scholarship, research or language learning purposes only