>
 >
 >
Hungry For Heaven

Hungry For Heaven Guitar Tabs

Dio - Hungry For Heaven chords, tabs, tablatures, lyrics

Guitar lessons | Add/correct | Request | Top 50 tabs Artists:  A B C D E F G H I J K L M N O P Q R S T U V W X Y Z 0-9

Hungry For Heaven Guitar Tabs – Dio

CD, Sheet music, Poster

Do you like Hungry For Heaven? Share with your friends now
Tabs

this is pretty easy and i kind of got lazy with tabbing it buit that should get you by

Intro
1,2,3                  4
E------------------/-------------------------|
B------------------/-------------------------|
G------------------/-------------------------|
D-------5--3-------/------5---6--------------|
A---3---3--1-------/---3--3---4--------------|
E---1--------------/---1---------------------|


2nd Guitar Intro
x 3
E------------------------------------------------------------------------|
B---------13-13-------13-13--10-11-11-10-10------------------------------|
G---10-10-------10-10-----------------------10-10-10---------------------|
D------------------------------------------------------------------------|
A------------------------------------------------------------------------|
E------------------------------------------------------------------------|

x1
E------------------------------------------------------------------------|
B---------13-13-------13-13----------------------------------------------|
G---10-10-------10-10----------------------------------------------------|
D------------------------------------------------------------------------|
A------------------------------------------------------------------------|
E------------------------------------------------------------------------|

x1
E--------------6-6-------------------------------------------------------|
B--9-9-8-8-9-9------9-9-8-8-9-9------------------------------------------|
G--------------3-3-------------------------------------------------------|
D--6-6-5-5-6-6------6-6-5-5-6-6------------------------------------------|
A------------------------------------------------------------------------|
E------------------------------------------------------------------------|


1,2,4                           3
E-----------------------------/--------------------------------------------|
B-----------------------------/--------------------------------------------|
G-----------------------------/--------------------------------------------|
D---------------6-------------/------------5/-----------6------------------|
A----3----------4--(x14)------/----3-------3/--3--------4-(x14)------------|
E----1--(x14)-----------------/----1-(x4)------1--(x8)---------------------|

pre chorus
1,2,3              4
E----------------/----------------------------------------------------------|
B----------------/----------------------------------------------------------|
G----------------/----------------------------------------------------------|
D---6---8---10---/-----8----6-----------------------------------------------|
A---4---6---8----/-----6----4-----------------------------------------------|
E----------------/----------------------------------------------------------|

chorus
1,2,3              4
E----------------/-----------------------------------------------------------|
B----------------/-----------------------------------------------------------|
G----------------/-----------------------------------------------------------|
D-------5---3----/----5----5-5-5-5-5-5-5-5-5---------------------------------|
A---3---3---1----/----3----3-3-3-3-3-3-3-3-3---------------------------------|
E---1------------/-----------------------------------------------------------|
                          /----p.m.------------------------------------------|

E--------------------------------------------------------------------------|
B--------------------------------------------------------------------------|
G--------------------------------------------------------------------------|
D--------5---3----------5----3---------------------------------------------|
A----3---3---1------3---3----1---------------------------------------------|
E----1--------------1------------------------------------------------------|

1,4                       2                            3
E-----------------------/----------------------------/-------------------------------|
B-----------------------/----------------------------/-------------------------------|
G-----------------------/----------------------------/-------------------------------|
D-------------6---------/-----------6--------5-------/---------5/-------6------------|
A---3---------4--(x14)--/---3-------4-(x7)---3--(x7)-/--3------3/-3-----4-(x12-------|
E---1--(x14)------------/---1-(x14)------------------/--1-(x4)----1-(x7)-------------|

1,2,3             4
E---------------/-----------------------------|
B---------------/-----------------------------|
G---------------/-----------------------------|
D---6--8--10----/-----8---6-------------------|
A---4--6--8-----/-----6---4-------------------|
E---------------/-----------------------------|

chorus.....

solo
E--------------------------------------------------------------------------|
B--------------------------------------------------------------------------|
G----4^^-p.h.-----4-(whammy)----/-each is slightly-p.h./-------------------|
D-------------------------------6----5---------5---------------------------|
A----------------------------------------6-----------3---------------------|
E--------------------------------------------------------------------------|

E--------------------------------------------------------------------------|
B----------------13--------13--------13----------13------------------------|
G----------------13--------13--------13----------13------------------------|
D---/13---13--15---15-13-15--15-13-15---15-13--15--------------------------|
A--------------------------------------------------------------------------|
E--------------------------------------------------------------------------|

im not sure about this part
E--------------------------------------------------------------------------|
B---13^----------/-p.h./----------9----------------------------------------|
G--------13--10---12-12---10-8------8h10h8---7h8h7--5h7h5--3h5h3/1---------|
D------------------------------------------------------------------3-------|
A--------------------------------------------------------------------------|
E--------------------------------------------------------------------------|

E--------------------------------------------------------------------------|
B--------------------------------------------------------------------------|
G----8-8-8-8-10------------------------5^-(or-5h6h5)-----------------------|
D---------------10-8-6--5h6--3----3--5-------------------------------------|
A--------------------------------------------------------------------------|
E--------------------------------------------------------------------------|

E-------------13------13----13---------------13----------------------------|
B--------------------------------------------------13~---------------------|
G--10--10--10-----10-----10-----10--10-10-10----10-------------------------|
D--------------------------------------------------------------------------|
A--------------------------------------------------------------------------|
E--------------------------------------------------------------------------|

E-------------------------------------------------------------11-----------|
B----------------4s6----------------------4s6--------------11---13---------|
G-----------3--5-------5------------3s5s3---------11-12-13-----------------|
D---3--5--6-----------------3--5--6----------------------------------------|
A--------------------------------------------------------------------------|
E--------------------------------------------------------------------------|

E-------------------------18^---16h18h16-------16h18h16-----16h18h16-----16h18h16-----------|
B----13----------------------------------18h61---------18h16--------18h16--------18h16/-----|
G--------12--13--15~------------------------------------------------------------------------|
D-------------------------------------------------------------------------------------------|
A-------------------------------------------------------------------------------------------|
E-------------------------------------------------------------------------------------------|

E--------------------------------------------------------------------------|
B--------------------------------------------------------------------------|
G--------------------------------------------------------------------------|
D---6----------------------------------------------------------------------|
A---4---(x16)--------------------------------------------------------------|
E--------------------------------------------------------------------------|





Comments


Popular Dio tabs & chords
Holy Diver Bass Tabs
Rainbow In The Dark 2 Bass Tabs
Stand Up And Shout Bass Tabs
Straight Through The Heart 3 Bass Tabs
The Last In Line 2 Bass Tabs
The Last In Line 3 Bass Tabs
We Rock 2 Bass Tabs
Holy Diver (Intro) Tabs
Lock Up The Wolves (Intro) Tabs
Stand Up And Shout 1 Tabs


Song lyrics



↑ Back to top | Tablatures and chords are parodies/interpretations of the original songs. You may use it for private study, scholarship, research or language learning purposes only
© 2014 AZChords.com Contact us | Privacy policy | DMCA | Add/correct tabs | Request tabs | Top 50 tabs