>
 >
 >
Holy Diver (Solo)

Holy Diver (Solo) Guitar Tabs

Dio - Holy Diver (Solo) chords, tabs, tablatures, lyrics

Guitar lessons | Add/correct | Request | Top 50 tabs Artists:  A B C D E F G H I J K L M N O P Q R S T U V W X Y Z 0-9

Holy Diver (Solo) Guitar Tabs – Dio

CD, Sheet music, Poster

Do you like Holy Diver (Solo)? Share with your friends now
Tabs
DIO - HOLY DIVER Solo

Firstly, check out my other tabs if you get the chance, thanks!

Since they didnít allow me to submit my whole version of the tab I decided to submit 
the solo. MY SOLO IS VERY ACCURATE! I included the rhythm too! So anyway, great song & 

Tablature legend:
PM|-| - Palm mute
/     - Slide up
\     - Slide down
h     - hammer-on
p     - pull-off
?(?)  - bend (to whatever is in the brackets)
~     - vibrato

SOLO:

e|--------------------------------------------------------------------------------|
B|-----10(12)(10)-----------------------------------------------------------------|
G|-----10(12)(10)p8-10-8----8-----------8-7-5-5~------------------8-5-8--7-7-7----|
D|-----------------------10---8~~-------8-7-5-5~------------------8-5-8--7-7-7----|
A|--------------------------------------------------8-6-5~~~----------------------|
E|--------------------------------------------------------------------------------|

e|-----------------------------20~~~-----18(20)(18)-16-15----------15-18-15-------------|
B|--------------------------------------------------------18-16-15----------16-15~~-----|
G|--------------------------------------------------------------------------------------|
D|-8-10-10~~--8h10p8--------------------------------------------------------------------|
A|-------------------10p8---------------------------------------------------------------|
E|------------------------11~-----------------------------------------------------------|

e|----18p16p15---------------------------------------------------|
B|-15----------18p16p15------------------------------------------|
G|----------------------17-15-17-17(20)---15h17p15-15-15~~~-\----|
D|---------------------------------------------------------------|
A|---------------------------------------------------------------|
E|---------------------------------------------------------------|

e|-------------------------------------------------------------------|
B|-------------11----------------------------------------------------|
G|-12-13-12---------------------------------------------8h10-10~~----|
D|----------13----13-12-10-13-12-10--10-12-13-12-13-15---------------|
A|-------------------------------------------------------------------|
E|-------------------------------------------------------------------|
PM|------------------------------------------------------------------|

e|-----------------------------------------------------------------------|
B|-----------------------------------------------------------------------|
G|-12-13-13p12p10----10----------------12-13-13p12p10----10--------------|
D|----------------13----13p12p10-12-13----------------13----13p12p10-12--|
A|-----------------------------------------------------------------------|
E|-----------------------------------------------------------------------|

e|---------------------------------------|
B|---------------------------------------|
G|-12-13-13p12p10----10------------------|
D|----------------13----13p12p10---------|
A|-------------------------------13-13~--|
E|---------------------------------------|

e|-----------------------------------------------------------------|
B|-----------------------------------------------------------------|
G|-12-13-13p12p10----10----------------12-13-13p12p10----10-12h13--|
D|----------------13----13p12p10-12-13----------------13-----------|
A|-----------------------------------------------------------------|
E|-----------------------------------------------------------------|

e|-11--10-----------------------------------------------------------------|
B|---------13--11--------------16-16p15p13--------------------------------|
G|-----------------13--12--10--------------15p13p12-10-13p12p10-----------|
D|--------------------------------------------------------------13p12p10--|
A|------------------------------------------------------------------------|
E|------------------------------------------------------------------------|

e|----------------------------------------------------------------------------|
B|----------------------------------------------------------------------------|
G|-7~-8-8-8~-10-10-10~-12-12-12~--15-15-15\13-13-13-12-10-8ó10(12)ó8~-7~~~~---|
D|----------------------------------------------------------------------------|
A|----------------------------------------------------------------------------|
E|----------------------------------------------------------------------------|

Solo rhythm:

e|---------------------------------------------------------------------------------|
B|---------------------------------------------------------------------------------|
G|---------------------------------------------------------------------------------|
D|-3-5------8-5------5-5------8-5------8---7---3-5------8-5------3-5------8-5------|
A|-1-3------6-3------3-3------6-3------6---5---1-3------6-3------1-3------6-3------|
E|---------------------------------------------------------------------------------|

e|---------------------------------------------------------|
B|---------------------------------------------------------|
G|---------------------------------------------------------|
D|-8---10---3-5-------8-5------5-5-------8-5-------8---7---|
A|-6---8----1-3-------6-3------3-3-------6-3-------6---5---|
E|---------------------------------------------------------|

e|-------------------------------------------------------------|
B|-------------------------------------------------------------|
G|-------------------------------------------------------------|
D|------------------------------3------3------3------3---------|
A|-6------6------6------6-------1--1-1-1--1-1-1--1-1-1--1-1----|
E|-4--4-4-4--4-4-4--4-4-4--4-4---------------------------------|
PM   |---|  |---|  |---|  |---|   |---|  |---|  |---|  |-------|

e|-------------------------------------------------------|
B|-------------------------------------------------------|
G|-------------------------------------------------------|
D|------------------------------3------3-------8---7-----|
A|-6------6------6------6-------1--1-1-1--1-1--6---5-----|
E|-4--4-4-4--4-4-4--4-4-4--4-4---------------------------|
PM   |---|  |---|  |---|  |---|   |---|  |---------------|

e|--------------------------------------------------|
B|--------------------------------------------------|
G|--------------------------------------------------|
D|----------------------------------------5---3-----|
A|-6------6------6------6-------6~---5~---3---1-----|
E|-4--4-4-4--4-4-4--4-4-4--4-4----------------------|
PM   |---|  |---|  |---|  |-------------------------|
End Solo

Enjoy!





Comments


Popular Dio tabs & chords
Caught In The Middle Bass Tabs
Rainbow In The Dark 3 Bass Tabs
Rainbow In The Dark 5 Bass Tabs
Straight Through The Heart Bass Tabs
Along Comes A Spider (Intro) Tabs
Evil Eyes Tabs
Man On The Silver Mountain Tabs
Stand Up And Shout 1 Tabs
Straight Through The Heart Tabs
Strange Highways 1 Tabs


Song lyrics



↑ Back to top | Tablatures and chords are parodies/interpretations of the original songs. You may use it for private study, scholarship, research or language learning purposes only
© 2014 AZChords.com Contact us | Privacy policy | DMCA | Add/correct tabs | Request tabs | Top 50 tabs