>
 >
 >
Holy Diver Full

Holy Diver Full Guitar Tabs

Dio - Holy Diver Full chords, tabs, tablatures, lyrics

Guitar lessons | Add/correct | Request | Top 50 tabs Artists:  A B C D E F G H I J K L M N O P Q R S T U V W X Y Z 0-9

Holy Diver Full Guitar Tabs – Dio

CD, Sheet music, Poster

Do you like Holy Diver Full? Share with your friends now
Tabs
Intro 
e|------------------------------------|---------------------------------------|
B|------------------------------------|---------------------------------------|
G|-6---6--6--6---6--6--6---6---8--9/--|--6---6--6--6---6--6--8--9/4-----------|
D|-6---6--6--6---6--6--6---6---8--9/--|--6---6--6--6---6--6--8--9/4-----------|
A|-4---4--4--4---4--4--4---4---6--7/--|--4---4--4--4---4--4--6--7/2-----------|
E|------------------------------------|---------------------------------------|

                               |1            |2
e|-----------------------------|-------------|--------------------------------|
B|-----------------------------|-------------|--------------------------------|
G|-6---6--6--6---6--6--8--9/4--|--6---4--6---|--6--4--2---------2--4----------|
D|-6---6--6--6---6--6--8--9/4--|--6---4--6---|--6--4--2---------2--4----------|
A|-4---4--4--4---4--4--6--7/2--|--4---2--4---|--4--2--0---------0--2----------|
E|-----------------------------|-------------|--------------------------------|

Canto 1  7x              2x        2x        4x              7x             2x   2x
e|---------|--4--|---------|---------|---------|-----|---------|--4--|--------|--------|
B|---------|--4--|---------|---------|---------|-----|---------|--4--|--------|--------|
G|--6-6-6--|--2--|--6-6-6--|--4-4-4--|--2-2-2--|--4--|--6-6-6--|--2--|-6-6-6--|-4-4-4--|
D|--6-6-6--|--2--|--6-6-6--|--4-4-4--|--2-2-2--|--4--|--6-6-6--|--2--|-6-6-6--|-4-4-4--|
A|--4-4-4--|--0--|--4-4-4--|--2-2-2--|--0-0-0--|--2--|--4-4-4--|--0--|-4-4-4--|-2-2-2--|
E|---------|-----|---------|---------|---------|-----|---------|-----|--------|--------|

 |1      4x
e|---------|--4--4--------4--4------|
B|---------|--4--4--------4--4------|
G|--6-6-6--|--2--2--2--2--2--2--4---|repete
D|--6-6-6--|--2--2--2--2--2--2--4---|Intro
A|--4-4-4--|--0--0--0--0--0--0--2---|
E|---------|------------------------|

 |2      3x                    5x    7x
e|---------|---------|--4--|-----|-----|
B|---------|---------|--4--|-----|-----|
G|--6-6-6--|--6/--2--|--2--|--4--|--6--|
D|--6-6-6--|--6/--2--|--2--|--4--|--6--|
A|--4-4-4--|--4/--0--|--0--|--2--|--4--|
E|---------|---------|-----|-----|-----|

Refrão                                                  |1             |2
e|--------|--------|--5--5--|--5/--2--|--------|--------|--4---4---2---|---4---|
B|--------|--------|--5--5--|--5/--x--|--------|--------|--4---4---x---|---4---|
G|--6--6--|--4--4--|--x--x--|--x/--4--|--6--6--|--4--4--|--x---x---4---|---2---|
D|--6--6--|--4--4--|--7--7--|--7/--4--|--6--6--|--4--4--|--6---6---4---|---2---|
A|--4--4--|--2--2--|--7--7--|--7/--2--|--4--4--|--2--2--|--6---6---2---|---0---|
E|--------|--------|--5--5--|--5/-----|--------|--------|--4---4-------|-------|

Base Solo
e|-----|-----|-----|------|-----|-----|-----|-----|-----|------|-----|-----|-----|-----|-----|
B|-----|-----|-----|------|-----|-----|-----|-----|-----|------|-----|-----|-----|-----|-----|
G|-4-6-|-9-6-|-6-6-|--9-6-|-9-8-|-4-6-|-9-6-|-4-6-|-9-6-|-9-11-|-4-6-|-9-6-|-6-6-|-9-6-|-6-4-|
D|-4-6-|-9-6-|-6-6-|--9-6-|-9-8-|-4-6-|-9-6-|-4-6-|-9-6-|-9-11-|-4-6-|-9-6-|-6-6-|-9-6-|-6-4-|
A|-2-4-|-7-4-|-4-4-|--7-4-|-7-6-|-2-4-|-7-4-|-2-4-|-7-4-|-7-9--|-2-4-|-7-4-|-4-4-|-7-4-|-4-2-|
E|-----|-----|-----|------|-----|-----|-----|-----|-----|------|-----|-----|-----|-----|-----|

       4x      4x      2x        2x                     4x       A.H--|
e|-------|-------|-------|---------|--------------------|-------|-------------|
B|-------|-------|-------|---------|--------------------|-------|-------------|
G|-2-----|-4-----|-2-----|-2-------|--4-4-4--4-4-9--9-6-|-2-2-2-|--------6--2-|
D|-2-----|-4-----|-2-----|-2-------|--4-4-4--4-4-9--9-6-|-2-2-2-|--------6--2-|
A|-0-0-0-|-2-2-2-|-0-0-0-|-0-0-0-0-|--2-2-2--2-2-7--7-4-|-0-0-0-|7~--6~--4--0-|
E|-------|-------|-------|---------|--------------------|-------|-------------|

Solo                     A.H                       alavanca 2 tons
e|----------------------------------------------|-------------------------|
B|--11b(13)r(11)--------------------------------|-------------------------|
G|--11b(13)r(11)--9--11--9b(11)r(9)-------------|--0~~~~-------9-8-6-6~~~-|
D|-----------------------------------11--9--9~~-|------------8-9-8-6-6~~~-|
A|----------------------------------------------|-------------------------|
E|----------------------------------------------|-------------------------|

e|-----------------------------|------------------------------------|
B|-----------------------------|--9~--------------------------------|
G|--------------------x--9-----|--9~--9-8-8-8~----------------------|
D|--------------------x----11--|--9~--9-8-8-8~---9--11--11--11~~----|
A|--9--7--6~~---2//9-----------|------------------------------------|
E|-----------------------------|------------------------------------|
                                                     A.H
e|------------------------------------------|---------------------19b(21)r(19)-|
B|------------------------------------------|-------------------x--------------|
G|------------------------------------------|-------------------x--------------|
D|--9---------------------------------------|--9~~~----------------------------|
A|----11--10--9/7--9b(10)--9b(10)r(9)-----x-|---------0////16------------------|
E|--------------------------------------x---|----------------------------------|

e|--17--16----------------------19--------|-----------------|
B|----------17--16--19--17--16------17~~~-|--16~~~~~~~~~----|
G|----------------------------------------|-----------------|
D|----------------------------------------|-----------------|
A|----------------------------------------|-----------------|
E|----------------------------------------|-----------------|

e|------------------------------19-19-19-17-16-16----------------------------------|
B|-19-19b(20)r(19)--17-16-17-17-------------------17-16p17-16/14-------------------|
G|---------------------------------------------------------------16----------------|
D|------------------------------------------------------------------18-18b(19)r(18)|
A|---------------------------------------------------------------------------------|
E|---------------------------------------------------------------------------------|

e|---------------------|-------------|------------------------------------------|
B|---------------------|-------------|----9-10-9---12---------------------------|
G|--16------16--16~~~~-|--16//19//3--|-10--------9----9-8-11-9-8------8-9-8-9-9-|
D|------18-------------|-------------|---------------------------11/9-----------|
A|---------------------|-------------|------------------------------------------|
E|---------------------|-------------|------------------------------------------|
                          A.H                    A.H
e|-12/14-----------------------------------------------------------------------|
B|-------9-10-9h10p9----9-10--9h10p9---------9-10-9---------------10-9h10p9----|
G|--9/11-------------11--------------9-8-9-9---------11-9-8-9-8/9-----------11-|
D|-----------------------------------------------------------------------------|
A|-----------------------------------------------------------------------------|
E|-----------------------------------------------------------------------------|
 A.H--------------------------|                              A.H-------------|
e|-------------------------------------------|--------------------------------|
B|-9-----------------------------------------|-9--10--9h10p9------9-----------|
G|----9--8--9--8h9p8-------------------------|----------------11-----9--8--9--|
D|--------------------11--9--9--9--9--9--11--|--------------------------------|
A|-------------------------------------------|--------------------------------|
E|-------------------------------------------|--------------------------------|
                            A.H---|   A.H----|
e|------------------------------------12--11--9--------------------9---------------|
B|-----10--9h10p9----9--12--9--10--9-------------12--10--9-----12-----12--10--9--12|
G|--8-------------11----------------------------------------9----------------------|
D|---------------------------------------------------------------------------------|
A|---------------------------------------------------------------------------------|
E|---------------------------------------------------------------------------------|

e|--------------------------------------------------------------------|
B|-10-9------9h10p9---------------------------------------------------|
G|-------11---------11--9--8--8~~~---9-9-9~~~~-9-9-11-11-11~~~~-------|
D|--------------------------------------------------------------------|
A|--------------------------------------------------------------------|
E|--------------------------------------------------------------------|

e|--------------------------------------------------------------------|
B|-9-9-9-9-9-12-12-12-12-12-10-10-10-9--------------------------------|
G|-------------------------------------11-9-11r(13)r(11)-9~~~~~~~~~~--|
D|--------------------------------------------------------------------|
A|--------------------------------------------------------------------|
E|--------------------------------------------------------------------|

Fim
e|----------------------|-------------------------|
B|----------------------|-------------------------|
G|-6-6-6--6-6-6--6-8-9/-|-6-6-6--6-6--6-4--8-9/-4-|
D|-6-6-6--6-6-6--6-8-9/-|-6-6-6--6-6--6-4--8-9/-4-|
A|-4-4-4--4-4-4--4-6-7/-|-4-4-4--4-4--4-4--6-7/-2-|
E|----------------------|-------------------------|

e|----------------------|-------------------------|
B|----------------------|-------------------------|
G|-6-6-6--6-6-6--6-8-9/-|-6-6-6--6-6--6-6--8-9/-8-|
D|-6-6-6--6-6-6--6-8-9/-|-6-6-6--6-6--6-6--8-9/-8-|
A|-4-4-4--4-4-4--4-6-7/-|-4-4-4--4-4--4-4--6-7/-6-|
E|----------------------|-------------------------|





Comments


Popular Dio tabs & chords
Caught In The Middle Bass Tabs
We Rock 2 Bass Tabs
Along Comes A Spider (Intro) Tabs
Another Lie Tabs
Dont Talk To Strangers Intro 1 Tabs
Evil Eyes Tabs
King Of Rock And Roll Intro Tabs
Shame On The Night Intro Tabs
Stand 1 Tabs
Strange Highways Tabs


Song lyrics



↑ Back to top | Tablatures and chords are parodies/interpretations of the original songs. You may use it for private study, scholarship, research or language learning purposes only
© 2014 AZChords.com Contact us | Privacy policy | DMCA | Add/correct tabs | Request tabs | Top 50 tabs