» » »

Die Toten Hosen, Paradies Tabs (ver.2)

Artists:  A B C D E F G H I J K L M N O P Q R S T U V W X Y Z # 

Paradies Tabs (ver.2)

Die Toten Hosen Tabs
 Rating:
4/5 (4 votes)
Paradies lessons Tabs too difficult? Try these video lessons and learn fast
                this song is very easy you can learn it within 10 minutes..... enjoy it!!!!!

INTRO

e |----------|----------|
h |----------|----------|
g |----------|----------|
D |----------|----------|
A |6/77777777|6/77777777|
E |4/55555555|4/55555555|


Verse 1,2,5,6,                  all palm muted   

e------------------------------------------------------------------------------|
B------------------------------------------------------------------------------|
G------------------------------------------------------------------------------|
D--------------------------------77777777----------------------5555--4444-2222-|
A--77777777--55555555--77777777--55555555--77777777--55555555--3333--2222-0000-|
E--55555555--33333333--55555555------------55555555--33333333------------------|

Verse 3,7

e-------------------------------------------------------------------------------|
B-------------------------------------------------------------------------------|
G-------------------------------------------------------------------------------|
D--55555555------------22222222------------22222222------------5555--4444--2222-|
A--33333333--55555555--00000000--22222222--00000000--55555555--3333--2222--0000-|
E------------33333333------------00000000------------33333333-------------------|


Verse 4,5,8,9

e--5---3---5---5---5---3---3---2---0---|
B--5---3---5---7---5---3---5---2---2---|
G--5---4---6---7---6---4---5---4---2---|
D--7---5---7---7---7---5---5---4---2---|
A--7---5---7---5---7---5---3---2---0---|
E--5---3---5---5---5---3---3---2-------|


Chorus

e------------------------------------------------------------------------------|
B------------------------------------------------------------------------------|
G----------------------77777777--55555555----------------------5555--4444-2222-|
D--77777777--55555555--77777777--55555555--77777777--55555555--5555--4444-2222-|
A--77777777--55555555--55555555--33333333--77777777--55555555--3333--2222-0000-|
E--55555555--33333333----------------------55555555--33333333------------------|


Solo

e------------------------------------------------------------5--3-5-6-5--7-5-3-|
B--------------------------------------------35-5-6-8-6-5---------------7------|
G---------------------5-4-2--24542-2-24542--5--------------2-------------------|
D--------5-3------2-3----------------------------------------------------------|
A----2-3-----5--5--------------------------------------------------------------|
E--5---------------------------------------------------------------------------|

e--5--57875-5-57875---------5555555--88888888--5--|
B-------------------7^7^7^7-----------------------|
G-------------------------------------------------|
D-------------------------------------------------|
A-------------------------------------------------|
E-------------------------------------------------|
            
Submit corrections

comments powered by Disqus
↑ Back to top | Die Toten Hosen Tabs for Paradies. Lyrics for acoustic guitar and electric guitar. Tablatures and chords are parodies/interpretations of the original songs. You may use it for private study, scholarship, research or language learning purposes only