» » »

Die Toten Hosen, Herz Brennt Tabs (ver.1)

Artists:  A B C D E F G H I J K L M N O P Q R S T U V W X Y Z # 

Herz Brennt Tabs (ver.1)

Die Toten Hosen Tabs
Rating:
0/5 (0 votes)
Herz Brennt lessons Tabs too difficult? Try these video lessons and learn fast
                Die Toten Hosen
Herz brennt
Zurück zum Glück (2004)
Meurer/Frege

Intro(gedämpft):
   
 e|---------------------------------|
 h|---------------------------------|
 g|---------------------------------|
 D|-8-8-8-8-8-8-8-8-8-8-8-8-8-8-8-8-|
 A|-8-8-8-8-8-8-8-8-8-8-8-8-8-8-8-8-|
 E|-6-6-6-6-6-6-6-6-6-6-6-6-6-6-6-6-|

Strophe:
 e|-----------------------------------------------------------------|
 h|-----------------------------------------------------------------|
 g|-----------------------------------------------------------------|
 D|-8-8-8-8-8-8-8-8-8-8-8-8-8-8-8-8-3-3-3-3-3-3-3-3-3-3-3-3-3-3-3-3-|
 A|-8-8-8-8-8-8-8-8-8-8-8-8-8-8-8-8-3-3-3-3-3-3-3-3-3-3-3-3-3-3-3-3-|
 E|-6-6-6-6-6-6-6-6-6-6-6-6-6-6-6-6-1-1-1-1-1-1-1-1-1-1-1-1-1-1-1-1-|

 Es ist mitten in der Nacht und ich schlafe nicht, weil ich dir 1000 Gedank-
 
 e|-----------------------------------------------------------------|
 h|-----------------------------------------------------------------|
 g|---------------------------------8-8-8-8-8-8-8-8-8-8-8-8-8-8-8-8-|
 D|-5-5-5-5-5-5-5-5-5-5-5-5-5-5-5-5-8-8-8-8-8-8-8-8-8-8-8-8-8-8-8-8-|
 A|-5-5-5-5-5-5-5-5-5-5-5-5-5-5-5-5-6-6-6-6-6-6-6-6-6-6-6-6-6-6-6-6-|
 E|-3-3-3-3-3-3-3-3-3-3-3-3-3-3-3-3---------------------------------|

 -en schick, und ich dich immer mehr vermiss.

(gleiche Akkorde weiter)
                                            
  Du liegst neben mir, ich kann dich nicht spüren
  und ich kann sie nicht ignorieren, die Angst dich zu verlieren.
  
  A#5                                        F5
  Zu glauben, dass es dir gut geht, und dass du nicht an mich denkst,
          G5                      D#5                 F5
  tut mir weh, es ist ein mieses Gefühl, das mich so quält.



 2. Strophe:

  Denkst du nie zurück an unsere Anfangszeit,
  wo es gut war, nur verliebt zu sein
  und zu hoffen, dass man dem Anderen reicht?

  (gleiche Akkorde)
  Und wann kam dieser Tag, als da erste Zweifel waren,
  ob unser Weg wirklich endlos ist?


Refrain: 

               A#5           F5
  Was kann man tun, wenn das Herz brennt,
            G5               D#5           F5
  wenn die Flamme sich immer tiefer in die Seele frisst?
               A#5           F5
  Was kann man tun, wenn das Herz brennt,
             G5            D#5              F5
  wenn außer Asche von der Liebe nicht viel übrig ist?

               G5  D#5  G5  D#5
  Was kann man tun?


3. Strophe: 

  Woher kommt der Hass, der uns verleitet
  immer wieder anzugreifen, um jedes bisschen Nichts zu streiten?
  Mit messerscharfen Worten stechen wir auf uns ein,
  zerschneiden unsere Liebe – wir sind hilflos dabei.

Refrain: 
 
              A#5           F5
  Was kann man tun, wenn das Herz brennt,
            G5               D#5           F5
  wenn die Flamme sich immer tiefer in die Seele frisst?
               A#5           F5
  Was kann man tun, wenn das Herz brennt,
             G5            D#5              F5
  wenn außer Asche von der Liebe nicht viel übrig ist?

                  A#5  F5    
  Man kann nichts tun...     
                  G5   D#5
  Man kann nichts tun...   
                  A#5  F5    
  Man kann nichts tun...     
                  G5   D#5
  Man kann nichts tun...  
  
                  
 Schluss mit A#5

 
Die 2. Gitarre spielt ab dem ersten Refrain entweder den jeweiligen Dur    oder Moll Akkord drüber.
            

comments powered by Disqus
↑ Back to top | Die Toten Hosen Tabs for Herz Brennt. Lyrics for acoustic guitar and electric guitar. Tablatures and chords are parodies/interpretations of the original songs. You may use it for private study, scholarship, research or language learning purposes only