» » »

Die Toten Hosen, Achterbahn Tabs (ver.1)

Artists:  A B C D E F G H I J K L M N O P Q R S T U V W X Y Z # 

Achterbahn Tabs (ver.1)

Die Toten Hosen Tabs
 Rating:
3.6/5 (5 votes)
Achterbahn lessons Tabs too difficult? Try these video lessons and learn fast
                

Notice: Listen to the Song while playing, I'm not always sure about the Rhythm.
        Corections are welcome.

INTRO:

First Guitar:

   D D B              D D B               D D H              D D C
e|--------|---------|--------|---------||--------|---------|--------|---------||
h|--------|---------|--------|---------||--------|---------|--------|---------||
G|-7-7-3--|---------|-7-7-3--|---------||-7-7-4--|---------|-7-7-5--|---------||
D|-7-7-3--|---------|-7-7-3--|---------||-7-7-4--|---------|-7-7-5--|---------||
A|-5-5-1--let-ring--|-5-5-1--let-ring--||-5-5-2--let-ring--|-5-5-3--let-ring--||
E|--------|---------|--------|---------||--------|---------|--------|---------||
  <       play this part 3 times      >

Second Guitar:

Listen to the Song and you will hear that he play a cool noise on strings.
Just take your Plec and move it over the upper two strings.

VERSE:

First Guitar: (Riff A 1st)

   D D B     D D B    D D H    D D C
e|---------|--------|--------|--------||
h|---------|--------|--------|--------||
G|-7-7-3---|-7-7-3--|-7-7-4--|-7-7-5--||
D|-7-7-3---|-7-7-3--|-7-7-4--|-7-7-5--||
A|-5-5-1---|-5-5-1--|-5-5-2--|-5-5-3--||
E|---------|--------|--------|--------||

Second Guitar: (Riff A 2nd)

e|------------||
h|------------||
G|---4--------||
D|-2---7-6-7--||  not sure about this
A|------------||
E|------------||
 


singer starts

BOTH GUITARS PLAY RIFF A 1st

then both play: (mute)

   B       C         D
e|-----------------|-----------------|-----------------|-----------------|-----------------|
h|-----------------|-----------------|-----------------|-----------------|-----------------|
G|-----------------|-----------------|-----------------|-----------------|-----------------|
D|-3-3-3-3-5-5-5-5-|-7-7-7-7-7-7-7-7-|-7-7-7-7-7-7-7-7-|-7-7-7-7-7-7-7-7-|-7-7-7-7-7-7-7-7-|
A|-1-1-1-1-3-3-3-3-|-5-5-5-5-5-5-5-5-|-5-5-5-5-5-5-5-5-|-5-5-5-5-5-5-5-5-|-5-5-5-5-5-5-5-5-|
E|-----------------|-----------------|-----------------|-----------------|-----------------|

   B                                   C                 A                 D
e|-----------------|-----------------|-----------------|-----------------|-----------------|
h|-----------------|-----------------|-----------------|-----------------|-----------------|
G|-----------------|-----------------|-----------------|-----------------|-----------------|
D|-3-3-3-3-3-3-3-3-|-3-3-3-3-3-3-3-3-|-5-5-5-5-5-5-5-5-|-2-2-2-2-2-2-2-2-|-7-7-7-7-7-7-7-7-|
A|-1-1-1-1-1-1-1-1-|-1-1-1-1-1-1-1-1-|-3-3-3-3-3-3-3-3-|-0-0-0-0-0-0-0-0-|-5-5-5-5-5-5-5-5-|
E|-----------------|-----------------|-----------------|-----------------|-----------------|

   D                                                     B
e|-----------------|-----------------|-----------------|-----------------|-----------------|
h|-----------------|-----------------|-----------------|-----------------|-----------------|
G|-----------------|-----------------|-----------------|-----------------|-----------------|
D|-7-7-7-7-7-7-7-7-|-7-7-7-7-7-7-7-7-|-7-7-7-7-7-7-7-7-|-3-3-3-3-3-3-3-3-|-3-3-3-3-3-3-3-3-|
A|-5-5-5-5-5-5-5-5-|-5-5-5-5-5-5-5-5-|-5-5-5-5-5-5-5-5-|-1-1-1-1-1-1-1-1-|-1-1-1-1-1-1-1-1-|
E|-----------------|-----------------|-----------------|-----------------|-----------------|

   C                 B
e|-----------------|-----------------||
h|-----------------|-----------------||
G|-----------------|-----------------||
D|-5-5-5-5-5-5-5-5-|-3-3-3-3-3-3-3-3-||
A|-3-3-3-3-3-3-3-3-|-1-1-1-1-1-1-1-1-||
E|-----------------|-----------------||


CHORUS:

First Guitar:

   F                                   A
e|-----------------|-----------------|-----------------|-----------------|
h|-----------------|-----------------|-----------------|-----------------|
G|-----------------|-----------------|-2---------------|-----------------|
D|-3---------------|-----------------|-2---------------|-----------------|
A|-3---------------let it ring-------|-0---------------let-it ring-------|
E|-1---------------|-----------------|-----------------|-----------------|
   Bahn frei         geht aus dem      Weg                     oh oh

Second Guitar: (picking)

   F                                   Am
e|--------1--------|-----------------|---------0-------|-----------------|
h|----------1------|-----------------|-----------1-----|-----------------|
G|------------2----|-----------------|-------------2---|-----------------|
D|-----------------|-----------------|-----------------|-----------------|
A|-----------------|-----------------|-0---------------|-----------------|
E|-1---------------|-----------------|-----------------|-----------------|

then:

First Guitar:

   D                                   G
e|-----------------|-----------------|-----------------|-----------------|
h|-----------------|-----------------|-----------------|-----------------|
G|-7---------------|-----------------|-----------------|-----------------|
D|-7---------------|-----------------|-5---------------|-----------------|
A|-5---------------let-it-ring-------|-5---------------let-it-ring-------|
E|-----------------|-----------------|-3---------------|-----------------|
  oh...                       oh oh   oh...                     Wenn ihr

Second Guitar: (picking)

   Dm
e|--------1--------|-----------------|--------3--------|------------------|
h|----------3------|-----------------|----------0------|------------------|
D|------------2----|-----------------|------------0----|------------------|
G|-0---------------|-----------------|-----------------|------------------|
A|-----------------|-----------------|-----------------|------------------|
E|-----------------|-----------------|-3---------------|------------------|

then:

First Guitar:

   B                                   F
e|-----------------|-----------------|-----------------|-------------------|
h|-----------------|-----------------|-----------------|-------------------|
G|-3---------------|-----------------|-----------------|-------------------|
D|-3---------------|-----------------|-3---------------|-------------------|
A|-1---------------let-it-ring-------|-3---------------let-it-ring---------|
E|-----------------|-----------------|-1---------------|-------------------|
   helfen wollt     sprecht ein Ge -  bet                             oh oh

Second Guitar: (picking)

   Bb                                  F
e|---------1-------|-----------------|---------1-------|-------------------|
h|-----------3-----|-----------------|-----------1-----|-------------------|
G|-------------3---|-----------------|-------------2---|-------------------|
D|-----------------|-----------------|-----------------|-------------------|
A|-1---------------|-----------------|-----------------|-------------------|
E|-----------------|-----------------|-1---------------|-------------------|

then:

First Guitar:

   C
e|----------------|----------------|----------------|----------------|
h|----------------|----------------|----------------|----------------|
G|-5--------------|-5--------------|-5--------------|-5--------------|
D|-5--------------|-5--------------|-5--------------|-5--------------|
A|-3--3--3--3--3--|-3--3--3--3--3--|-3--3--3--3--3--|-3--3--3--3--3--|
E|----------------|----------------|----------------|----------------|
  oh...                       oh oh oh...                    gebt die

Second Guitar: (picking)

   C
e|--------0-------|--------0-------|--------0-------|--------0-------|
h|------1---1-----|------1---1-----|------1---1-----|------1---1-----|
G|----0-----------|----0-----------|----0-----------|----0-----------|
D|----------------|----------------|----------------|----------------|
A|-3--------------|-3--------------|-3--------------|-3--------------|
E|----------------|----------------|----------------|----------------|


RIFF B (both Guitars, mute)

   A                                   B
e|-----------------|-----------------|-----------------|-----------------|
h|-----------------|-----------------|-----------------|-----------------|
G|-----------------|-----------------|-----------------|-----------------|
D|-2-2-2-2-2-2-2-2-|-2-2-2-2-2-2-2-2-|-3-3-3-3-3-3-3-3-|-3-3-3-3-3-3-3-3-|
A|-0-0-0-0-0-0-0-0-|-0-0-0-0-0-0-0-0-|-1-1-1-1-1-1-1-1-|-1-1-1-1-1-1-1-1-|
E|-----------------|-----------------|-----------------|-----------------|

   H                                   C
e|-----------------|-----------------|-----------------|-----------------|
h|-----------------|-----------------|-----------------|-----------------|
G|-----------------|-----------------|-----------------|-----------------|
D|-4-4-4-4-4-4-4-4-|-4-4-4-4-4-4-4-4-|-5-5-5-5-5-5-5-5-|-5-5-5-5-5-5-5-5-|
A|-2-2-2-2-2-2-2-2-|-2-2-2-2-2-2-2-2-|-3-3-3-3-3-3-3-3-|-3-3-3-3-3-3-3-3-|
E|-----------------|-----------------|-----------------|-----------------|

                         repeat this part
                              then:

   C#                D                 D#                E
e|-----------------|-----------------|-----------------|-----------------|
h|-----------------|-----------------|-----------------|-----------------|
G|-----------------|-----------------|-----------------|-----------------|
D|-6-6-6-6-6-6-6-6-|-7-7-7-7-7-7-7-7-|-8-8-8-8-8-8-8-8-|-9-9-9-9-9-9-9-9-|
A|-4-4-4-4-4-4-4-4-|-5-5-5-5-5-5-5-5-|-6-6-6-6-6-6-6-6-|-7-7-7-7-7-7-7-7-|
E|-----------------|-----------------|-----------------|-----------------|

(not mute)
   F           F#            G           G#
e|-------------------------|-------------------------|
h|-------------------------|-------------------------|
G|-------------------------|-------------------------|
D|-10-10-10-10-11-11-11-11-|-12-12-12-12-13-13-13-13-|
A|-8--8--8--8--9--9--9--9--|-10-10-10-10-11-11-11-11-|
E|-------------------------|-------------------------|

   A
e|-------------------------|-------------------------|
h|-------------------------|-------------------------|
G|-------------------------|-------------------------|
D|-14-14-14-14-14-14-14-14-|-14-14-14-14-14-14-14-14-|
A|-12-12-12-12-12-12-12-12-|-12-12-12-12-12-12-12-12-|
E|-------------------------|-------------------------|


SONG-STRUKTUR:

Intro
Verse
Chorus (2x)
Verse
Chorus (2x)
Riff B
Verse
Chorus (2x)

HAVE FUN :-)!
            
Submit corrections

comments powered by Disqus
↑ Back to top | Die Toten Hosen Tabs for Achterbahn. Lyrics for acoustic guitar and electric guitar. Tablatures and chords are parodies/interpretations of the original songs. You may use it for private study, scholarship, research or language learning purposes only