>
 >
Zto

Zto Guitar Tabs

Devin Townsend - Zto chords, tabs, tablatures, lyrics

Guitar lessons | Add/correct | Request | Top 50 tabs Artists:  A B C D E F G H I J K L M N O P Q R S T U V W X Y Z 0-9

Zto Guitar Tabs – Devin Townsend

CD, Sheet music, Poster

Do you like Zto? Share with your friends now
TabsTabs v2
The other ZTO tab wasn't that worthy so I thought I'd quickly tab the right version so here it is.

BTW, the way the tab is typed out may be a bit off, but the general timing and the notes 
there. So enjoy!

Tuning: Open C - CGCGCE


     PM---------------

E||--------------------------------|
C||--------------------------------|
G||---------------------7-------7--|
C||---------------------7-------7--|
G||---------------------5-------5--|
C||--0----0--0--0--0---------------|


  PM-------------    PM    PM    PM    PM

-------------------------------------------------|
-------------------------------------------------|
-------------------8-----8-----5-----5-----5--7--|
-------------------8-----8-----8-----8-----8--7--|
-------------------6-----6-----6-----6-----6--5--|
--0----0--0--0--0-----0-----0-----0-----0--------|


  PM-------------------------------------------


-----------------------------------------------|
-----------------------------------------------|
-----------------------------------------------|
-----------------------------------------------|
-----------------------------------------------|
--0----2--2--2--2----3--3--3--3----2--2--2--2--|


  PM------------------------------------------------------

----------------------------------------------------------|
----------------------------------------------------------|
----------------------------------------------------------|
----------------------------------------------------------|
--5--5--5--5------------------3--3--3--3------------------|
----------------2--2--2--2------------------2--2--2--2----|


  PM---------------

--------------------------------|
--------------------------------|
---------------------7-------7--|
---------------------7-------7--|
---------------------5-------5--|
--0----0--0--0--0---------------|

    PM-------------      PM    PM    PM    PM

----------------------------------------------------|
----------------------------------------------------|
----------------------8-----8-----5-----5-----5--7--|
----------------------8-----8-----8-----8-----8--7--|
----------------------6-----6-----6-----6-----6--5--|
-----0----0--0--0--0-----0-----0-----0-----0--------|


  PM------------------------------------------

-------------------------------------------------|
-------------------------------------------------|
-------------------------------------------------|
-------------------------------------------------|
-------------------------------------------------|
--0----2--2--2--2----3--3--3--3----2--2--2--2----|


  PM----------------------------------------------------

----------------------------------------------------------|
----------------------------------------------------------|
----------------------------------------------------------|
----------------------------------------------------------|
--5--5--5--5------------------3--3--3--3------------------|
----------------2--2--2--2------------------2--2--2--2----|


  PM-------------------------------

-----------------------------------------------------|
-----------------------------------------------------|
-----------------------------------------------------|
-----------------------------------------------------|
---------------------2--3--5-5----3--2h-3p-2---------|
--3----3--3--3--3-------------------------------5----|


  PM-------------------------------------------------------

-------------------------------------------------------------|
-------------------------------------------------------------|
-------------------------------------------------------------|
--------------------------------------2--2--2--2--2--2--2--2-|
---------------------2--3--5--5----3-------------------------|
--3-3-3-3-3-3-3-3--------------------------------------------|


  PM-------------------------------

-----------------------------------------------------|
-----------------------------------------------------|
-----------------------------------------------------|
-----------------------------------------------------|
---------------------2--3--5-5----3--2h-3p-2---------|
--3----3--3--3--3-------------------------------5----|


  PM------------------------------------------------------------------

-------------------------------------------------2--2--2--2--2--2--2--|
--------------------------------2--3--5--5----3-----------------------|
--0--0--0--0--0--0--0--0----------------------------------------------|


      PM----------------------------

-----------------------------------------------------|
-----------------------------------------------------|
-----------------------------------------------------|
---3-------------------------------------------------|
---------------------2--3--5-5----3--2h-3p-2---------|
------3--3--3--3-------------------------------5-----|


  PM-------------------------------

-----------------------------------------------------|
-----------------------------------------------------|
-----------------------------------------------------|
-----------------------------------------------------|
---------------------2--3--5-5----3--2h-3p-2---------|
--3-3-3-3-3-3-3-3-----------------------------5------|


  PM------------------------------------------

-------------------------------------------------------------|
-------------------------------------------------------------|
-------------------------------------------------------------|
-------------------------------------------------------------|
--------------------------------2--3--5-5----3--2h-3p-2------|
--0--0--0--0--0--0--0--0-----------------------------------5-|


  PM-------------------------------------------------

------------------------------------------------------|
------------------------------------------------------|
------------------------------------------------------|
------------------------------------------------------|
---------------------2--3--5--5--5--5--5--5--5--5--5--|
--0-0-0-0-0-0-0-0-------------------------------------|


  PM-------------

--------------------------------|
--------------------------------|
---------------------7-------7--|
---------------------7-------7--|
---------------------5-------5--|
--0----0--0--0--0---------------|


  PM-------------   PM	  PM    PM    PM

--------------------------------------------------||
--------------------------------------------------||
------------------8-----8-----5-----5-----5--(7)--||
------------------8-----8-----8-----8-----8--(7)--||
------------------6-----6-----6-----6-----6--(5)--||
--0----0--0--0--0----0-----0-----0-----0------0---||

Greetings humans... I am Ziltoid, the Omniscient.





Comments


Popular Devin Townsend tabs & chords
Ghost Chords
Coast Tabs
Hyperdrive Tabs
Hyperdrive 3 Tabs
Let It Roll Tabs
Noisy Pink Bubbles Tabs
Quiet Riot Tabs
Slow Me Down Intro Tabs
Truth Tabs
Ghost Ukulele


Song lyrics



↑ Back to top | Tablatures and chords are parodies/interpretations of the original songs. You may use it for private study, scholarship, research or language learning purposes only
© 2014 AZChords.com Contact us | Privacy policy | DMCA | Add/correct tabs | Request tabs | Top 50 tabs