>
 >
I Am Yours

I Am Yours Guitar Tabs

Derek And The Dominos - I Am Yours chords, tabs, tablatures, lyrics

Guitar lessons | Add/correct | Request | Top 50 tabs Artists:  A B C D E F G H I J K L M N O P Q R S T U V W X Y Z 0-9

I Am Yours Guitar Tabs – Derek And The Dominos

CD, Sheet music, Poster

Do you like I Am Yours? Share with your friends now
ChordsTabsUkulele
Band: Derek and the Dominos

Gtr I (E A D G B E) - 'Eric Clapton - Rhythm Steel String Acoustic w/capo (notes
relative to capo)'
Gtr II (D G D G B D) - 'Duane Allman - Lead clean electric w/slide'

Intro
  Q=122
 4/4
  Gtr I
  a E Q  E +E  Q  E   a E E a E E a E E a E E
|-----0--0-(0)-0--0-|-------------------------|
|-----3--3-(3)-3----|-------------------------|
|-2s4---------------|-4s2-0-----0-------------|
|-------------------|-------0h2---0h2-0-----0-|
|-------------------|-------------------0h2---|
|-------------------|-------------------------|


  E E E E +E  E E E   +E  E E E +E  E E E
|---3-x-3-(3)-3-x-3-|-(3)-----3-(3)-3---3-|
|---0-x-0-(0)-0-x-0-|-(0)-----0-(0)-0-0-0-|
|---0-x-0-(0)-0-x-0-|-(0)-----0-(0)-0-0-0-|
|-0-0-x-0-(0)-0-x-0-|-(0)-0-0-0-(0)-0-0-0-|
|-2-----------------|-----2-2---------2---|
|-3-----------------|-----3-3-------------|


  Gtr II
                                    ~~~~~~~~~~~~~
  E E E E +E  Q   E   +E  Q   E +E  Q.       +E  E E E +E  Q   E
|-------------------|----------------------|---------------------|
|-------5-(5)-6s==8-|-(8)s6---5-(5)--------|---------8-(8)s6---5-|
|-----5-------------|---------------5------|-(5)-----------------|
|---5---------------|----------------------|-----5-5-------------|
|-------------------|----------------------|---------------------|
|-------------------|----------------------|---------------------|
|
| Gtr I
| E E E E +E  E E E   +E  E E E +E  E  E E    E  E E E +E  E E E
|-------3-(3)-3---3-|-(3)-----3-(3)------3-|---------3-(3)-3---3-|
|-------0-(0)-0---0-|-(0)-----0-(0)------0-|---------0-(0)-0---0-|
|-0-0-0-0-(0)-0-x-0-|-(0)-0-0-0-(0)-0--0-0-|--0--0-0-0-(0)-0-x-0-|
|-0-0-0-0-(0)-0-x-0-|-(0)-0-0-0-(0)-0--0-0-|--0--0-0-0-(0)-0-x-0-|
|-2-2-2---------x---|-----2-2-------2--2---|--2--2-2---------x---|
|-------------------|----------------------|---------------------|


      ~      ~~~~~~~~~~~~~~~                           ~~~~~~
  +E  Q   E +H          +E  E E E +E  Q   E   +E   Q   E +Q    Q
|---------------------|---------------------|----------------------||
|-(5)-----------------|---------5-(5)s6---8-|-(8)s10s==8-(8)-------||
|-----5---5-(5)-------|-(5)---5-------------|----------------------||
|---------------------|-----5---------------|----------------------||
|---------------------|---------------------|----------------------||
|---------------------|---------------------|----------------------||
|
| +E  E E E  E  E E E   +E  E E E +E  E E E   +E   E E E +E  E E E
|-(3)-----------3---3-|-(3)-----3-(3)-3---2-|-(2)--2---------------||
|-(0)-----------0---0-|-(0)-----0-(0)-0-x-3-|-(3)--3-x-4-(4)-4-4---||
|-(0)-0-0-0-----0-x-0-|-(0)-0-0-0-(0)-0-x-2-|-(2)--2-x-2-(2)-2-2-0-||
|-(0)-0-0-0-----0-x-0-|-(0)-0-0-0-(0)-0-x-0-|-(0)--0-x-4-(4)-4-4-0-||
|-----2-2-0-------x---|-----2-2-------------|--------x-2-(2)-2-2-0-||
|------------2--------|-------------------2-|-(2)--2---------------||


   Verse
    $
      ~~~~~~~~~~~~~~~~~~~~~~~~~~~~~~~~~~~~~
      W                   W
||---------------------|------------------|
||o-/10----------------|-12---------------|
||---------------------|------------------|
||---------------------|------------------|
||o--------------------|------------------|
||---------------------|------------------|
|
|     E Q.   +E  E E E    E Q.   +Q   E E
||------0----(0)-------|----0----(0)------|
||o-----0----(0)-------|----0----(0)------|
||------0----(0)-------|----0----(0)------|
||----2----------2-2-2-|--2-2----(2)--2-2-|
||o---2----------2-2-2-|--2-2----(2)--2-2-|
||----0----------------|----0----(0)------|
 |-Rhy Fig 1

 ~~~~~~~~~~~~~~~~~~~~~~~
   W                +E   Q   E  +E   Q   E
|----------------|----------12-(12)-14--15--|
|-13-------------|-(13)-13------------------|
|----------------|--------------------------|
|----------------|--------------------------|
|----------------|--------------------------|
|----------------|--------------------------|
|
|  E Q.   +H         E   Q   E  +E   Q   E
|----0----(0)----|-------0---0--(0)--0------|
|----0----(0)----|-------0---2--(2)--3---5--|
|----0----(0)----|-------0---------------9--|
|--2-------------|-------2------------------|
|--2-------------|--------------------------|
|----------------|--------------------------|


                           ~~~~~~~~~
   +E   Q    E  +E   Q     E    +H         E   Q    E
|-(15)-17---19-(19)-21---/22-|-(22)-----------24s==22-|
|----------------------------|------------------------|
|----------------------------|------------------------|
|----------------------------|------------------------|
|----------------------------|------------------------|
|----------------------------|------------------------|
|
|  +E   E E  E   E   E E   E     E  E E E +E   E E  E
|-------2----3-------2-----0-|----------0-(0)-------0-|
|--(5)--5----5-------5-----0-|---2--2-2-2-(2)--2-2--2-|
|--(9)-----------------------|---0--0-0-0-(0)--0-0--0-|
|----------------------------|---2--2-2--------2-2----|
|----------------------------|---0--0-0--------0-0----|
|----------------------------|------------------------|


   ~~~                     ~~~
   H         E   Q    E    W
|---------------12s==10-|-------------------|
|-24--------------------|-10----------------|
|-----------------------|-------------------|
|-----------------------|-------------------|
|-----------------------|-------------------|
|-----------------------|-------------------|
|
| +E  E E E +E   E E  E    Q.   E +E  E E E
|-(0)-----0-(0)---------|--0--------------0-|
|-(2)-2-2-2-(2)--2-2--0-|--0----0-(0)-0-0-0-|
|-(0)-0-0-0-(0)--0-0--0-|--0----0-(0)-0-0-0-|
|-----2-2--------2-2--0-|--2----------2-2---|
|-----0-0--------0-0----|--3----------3-3---|
|-----------------------|-------------------|


    ~~~~
   +W                    H     E   Q    E
|----------------------|------10s=12s==10-|
|-(10)-----------------|------------------|
|----------------------|------------------|
|----------------------|------------------|
|----------------------|------------------|
|----------------------|------------------|
|
|  +E  E E E +E  E E E   H    +E   E E  E
|--(0)-----0-(0)-----0-|----------------0-|
|--(0)-0-0-0-(0)-0-0-0-|-----------0----3-|
|--(0)-0-0-0-(0)-0-0-0-|-0----(0)--0-0----|
|------2-2-------2-2-2-|-2----(2)----2----|
|------3-3-------3-3---|-2----(2)----2----|
|----------------------|------------------|


       ~~~~~~~~~~~                 ~~
   +S  E.     +H.               a  W
|-(10)-7------(7)-------------|--------------------|
|-----------------------------|-9s10---------------|
|-----------------------------|--------------------|
|-----------------------------|--------------------|
|-----------------------------|--------------------|
|-----------------------------|--------------------|
|
|  +E      Q      E +E  E E E      Q  E E +E  Q  E
|--(0)------------0-(0)---0---|----0--0-2-(2)-0--2-|
|--(3)-----3------3-(3)-3-3-3-|----1--1-3-(3)-1--3-|
|----------0------0-(0)-0-0-0-|----2--2----------2-|
|---------(2)-----2-(2)-2-2-2-|----2-------------0-|
|-----------------------------|--------------------|
|-----------------------------|--------------------|


    ~~~~
   +H         H          H        E    E   E  E
|----------------------|------------------------|
|-(10)-----------------|---------------------17-|
|----------------------|------------------17----|
|----------------------|--------------17--------|
|----------------------|------------------------|
|----------------------|------------------------|
|
|  +E  E E E +E  E E E   E E E E +E    E   E  E
|--(2)-2---2-(2)-------|-3-3-x-3-(3)---3--------|
|--(3)-3---3-(3)-------|-0-0-x-0-(0)---0---3--2-|
|--(2)-2---2-(2)-2-2-2-|-0-0-x-0-(0)---0---0--2-|
|--(0)-0---0-(0)-0-0-0-|-0-0-x-0-(0)---0------4-|
|----------------0-0-0-|-2-----------------4--4-|
|----------------------|-3-----------------0--2-|
|
|   W                    H        E    E   E  E
|----------------------|------------------------|
|----------------------|------------------------|
|----------------------|------------------17----|
|----------------------|-------------(17)----17-|
|----------------------|------------------------|
|----------------------|------------------------|
                       |-Gtr I substitutes on D.S.

                                  ~~
   E   E  E  E  E   E  E  E       W
|--------------17s=15-------|------------------------|
|-18--17----17-18s=17-17----|------------------------|
|--------17-----------17-17-|----19------------------|
|------------------------17-|------------------------|
|---------------------------|------------------------|
|---------------------------|------------------------|
|
| +E   E  E  E +E   E  E  E       Q  E E +E   Q   E
|------------2-(2)--2--2----|-----0--0-2-(2)-(0)--2--|
|-(2)--2-----4-(4)--4--4--0-|-----1--1-1-(1)--1---3--|
|-(2)--2--x--2-(2)--2--2--0-|-----2------------------|
|-(4)--4--x--4-(4)--4--4--0-|-----2------------------|
|-(4)--4--x--2-(2)--2--2----|------------------------|
|-(2)--2--x-----------------|------------------------|
|
|                                 ~~
|  E   E  E  E  E   E  E  E    a  W
|---------------------------|------------------------|
|-17--18-17----17--18-17----|------------------------|
|---------------------------|-17s19------------------|
|-----------17-----------17-|------------------------|
|---------------------------|------------------------|
|---------------------------|------------------------|
|-Gtr I substitutes on D.S.

   W                  H       Q    E  E
|-------------------|-------------------|
|-------------------|----------------17-|
|-------------------|-------------17----|
|-------------------|-------------------|
|-------------------|-------------------|
|-------------------|-------------------|
|
| +E  Q  E +E  Q  E   E E E E E E  E  E
|-(2)-2-----------3-|---3---3---2-------|
|-(3)-3--3-(3)----0-|-0-0-0-0-0-3-----0-|
|--------2-(2)----0-|-0-0-0-0-0-2--2--0-|
|-----------------0-|-0-0-0---0-0--0--0-|
|--------------0----|-2-2-2--------0----|
|-------------------|-------------------|
|
|  W                  H       Q    E  E
|-------------------|-------------------|
|-------------------|-------------------|
|-------------------|-------------------|
|-------------------|----------------17-|
|-------------------|-------------------|
|-------------------|-------------------|
                    |-Gtr I substitutes on D.S.

                                 ~~
   E  E  a  E  E  E   E  E  E    W
|-----------------------------|--------------------|
|-18-17-17s18s17-18s=17-------|--------------------|
|-----------------------17----|-19-----------------|
|--------------------------17-|--------------------|
|-----------------------------|--------------------|
|-----------------------------|--------------------|
|
|  E  E     E  E +E   E  E  E    Q  E E +E  E E E
|--0-----------0-(0)--0--0----|--0--0-0-(0)-0-0-0--|
|--0-----------0-(0)--0--0--0-|--2--2-2-(2)-2-2-2--|
|--0--0-----0--0-(0)--0--0--0-|--2--2-2-(2)-2-2-2--|
|--2--2-----2--2-(2)--2--2--2-|--2--2-2-(2)-2-2-2--|
|--2--2-----2-----------------|--------------------|
|--0--------------------------|--------------------|
|
|                                ~~
|  E  E     E  E  E   E  E  E    W
|--------------------------12-|-10-----------------|
|-17-------18-17--------------|--------------------|
|----17----------17-----------|--------------------|
|--------------------17-14----|--------------------|
|-----------------------------|--------------------|
|-----------------------------|--------------------|
|-Gtr I substitutes on D.S.

                                                         To Coda
   ~~
   W                W                       E  E  E  E  E  E  E  E
|-12--------------|----------------------|--------------------------||
|-----------------|----------------------|-10s=9-----9-10s=9-------o||
|-----------------|----------------------|--------9-----------9-----||
|-----------------|----------------------|-----------------------9--||
|-----------------|----------------------|-------------------------o||
|-----------------|----------------------|--------------------------||
|
|  E E E E Q  E E   E E E E +E   E  E  E   +E  E  E  E +E  E  E  E
|--2-2-2-2-2------|-3-3-3-3-(3)--3--3--2-|-(2)-2-----2-(2)-2--2-----||
|--3-3-3-3-3--3-3-|-0-0-0-0-(0)--0--0--1-|-(1)-1-----4-(4)-4--4----o||
|--2-2-2-2-2--2-2-|-0-0-0-0-(0)--0--0--2-|-(2)-2--x--2-(2)-2--2--0--|| end
|--0-0-0-0-2--2-2-|-0-0-0-0-(0)--0--0--4-|-(4)-4--x--4-(4)-4--4--0--|| Rhy Fig 1
|-----------------|-2-2-2-2-(2)--2--2--3-|-(3)-3--x--2-(2)-2--2--0-o||
|-----------------|-3-3-3-3-(3)--3--3--2-|-(2)-2--x-----------------||
|
|  W                H        E   E  E  E    E  E  E  E  E  E  E  E
|-----------------|----------------------|--------------------------||
|-----------------|----------------17----|-18s17----17-17s18s17----o||
|-----------------|----------------------|-------17-------------17--||
|-----------------|-------------17----17-|--------------------------||
|-----------------|----------------------|-------------------------o||
|-----------------|----------------------|--------------------------||
                  |-Gtr I substitutes on D.S.

 Guitar Solo
w/Rhy Fig 1
     ~~~~~~~~~~~~~~~~~~~~~~
  a  W                   W
|---------------------|------------------|
|-6s10----------------|-12---------------|
|---------------------|------------------|
|---------------------|------------------|
|---------------------|------------------|
|---------------------|------------------|


      ~~
   a  W                +E    Q   E  +E   Q   E
|-------------------|-----------12-(12)-14--15-|
|-10s13-------------|-(13)-/13-----------------|
|-------------------|--------------------------|
|-------------------|--------------------------|
|-------------------|--------------------------|
|-------------------|--------------------------|


                                            ~~~
   +E   Q    E  +E   E  +E   E    Q.     E  H
|-(15)-17---19-(19)-21-(21)s22-|-22s====19-19--------|
|------------------------------|---------------------|
|------------------------------|---------------------|
|------------------------------|---------------------|
|------------------------------|---------------------|
|------------------------------|---------------------|


       ~~~~~~~~~~~                            ~~~
   E   Q.      H           S  E.  +Q      a   H
|-----------------------|-------------------------------|
|-13s=15------13--------|-13s15--(15)---(15)s17---------|
|-----------------------|-------------------------------|
|-----------------------|-------------------------------|
|-----------------------|-------------------------------|
|-----------------------|-------------------------------|


                                  ~~~
   a  H         a  H           E  Q.    +E   a  Q    E
|---------------------------|---------------10s12s==10-|
|-12s13--------13s12--------|--------------------------|
|---------------------------|-12s14----(14)------------|
|---------------------------|--------------------------|
|---------------------------|--------------------------|
|---------------------------|--------------------------|


   ~~~~                        ~~~
   H..                 E    E  Q.      +E   S  S  +E   E
|------------------------|-10s12------(12)-12-14-(14)-12-|
|-10------------------10-|-------------------------------|
|------------------------|-------------------------------|
|------------------------|-------------------------------|
|------------------------|-------------------------------|
|------------------------|-------------------------------|


   +E   Q   E +E  Q   E   +E  Q   E +E  a Q   E
|-(12)-10---9-(9)s7-----|-----------------------|
|---------------------8-|-(8)s6---5-(5)---------|
|-----------------------|---------------5s7s==5-|
|-----------------------|-----------------------|
|-----------------------|-----------------------|
|-----------------------|-----------------------|


          ~~~~~~                    ~~~~~~~~~~~~~
  +E  Q   E +E  Q   E    Q  +E   E  Q       +Q
|---------------------|----------------------------|
|---------------------|----------------------------|
|-(5)-7s==9-(9)-9---9-|-/9--(9)s10-10------(10)s===|
|---------------------|----------------------------|
|---------------------|----------------------------|
|---------------------|----------------------------|


                                  ~~
   Q    S a  E.     a   Q.    E   H.           E  E
|-------------------------------|-------------------|
|-------------------------------|-------------------|
|--9----9-9s10----(10)s12s====9-|-9--------------/9-|
|-------------------------------|-------------------|
|-------------------------------|-------------------|
|-------------------------------|-------------------|


                         ~~~~~~~~~~~~
   E E E E  E  E E E     H       +E   E  +S   E.
|--------------------|----------------------------|
|-10-9---9-10s=9---9-|---------------12-(12)-13s==|
|------9---------9---|-/14------(14)--------------|
|--------------------|----------------------------|
|--------------------|----------------------------|
|--------------------|----------------------------|


      ~~~~~~~~~~~~
                   |--3--|
   a  Q.      +E   H     Q
|----------------------------|
|-12s15------(15)-15s===13---|
|----------------------------|
|----------------------------|
|----------------------------|
|----------------------------|


                                               D.S. al Coda
   |----3----|    |----3-----|      |---3----|
   Q    Q    Q    Q     Q    Q      Q    Q   Q    Q    E E
|--------------------------------|--------------------------||
|-12s==13s==12---------12--------|-10s===8------------------||
|----------------12---------12---|-----------9----9----9----||
|--------------------------------|--------------------------||
|--------------------------------|--------------------------||
|--------------------------------|--------------------------||


  &
   ~~~~~~~~~~~~~~~~~~~                  ~~~~~~~~~~~
   W                W                S  E.     +H.
|----------------|----------------|-15s17-----(17)---------*|
|-10-------------|-12-------------|------------------------*|
|----------------|----------------|------------------------*|
|----------------|----------------|------------------------*|
|----------------|----------------|------------------------*|
|----------------|----------------|------------------------*|
|
|  E Q.   +H        E Q.   +H        E     Q.       +H
|----0----(0)----|----0----(0)----|--------0--------(0)----*|
|----0----(0)----|----0----(0)----|--------0--------(0)----*|
|----0----(0)----|----0----(0)----|--------0--------(0)----*|
|--2-------------|----2----(2)----|--------2--------(2)----*|
|--2-------------|----2----(2)----|--------2--------(2)----*|
|--0-------------|----0----(0)----|--------0--------(0)----*|



Original Source: mikesguitarsite.com





Comments


Popular Derek And The Dominos tabs & chords
Bell Bottom Blues 1 Chords
I Looked Away Chords
Why Does Love Chords
Layla (Intro Ver 2) Tabs
Little Wing Tabs
Tell The Truth Tabs
Thorn Tree In The Garden Tabs
I Am Yours Ukulele
Its Too Late Ukulele
Layla Ukulele


Song lyrics



↑ Back to top | Tablatures and chords are parodies/interpretations of the original songs. You may use it for private study, scholarship, research or language learning purposes only
© 2014 AZChords.com Contact us | Privacy policy | DMCA | Add/correct tabs | Request tabs | Top 50 tabs