>
 >
Wedding Bell

Wedding Bell Guitar Tabs

Depapepe - Wedding Bell chords, tabs, tablatures, lyrics

Guitar lessons | Add/correct | Request | Top 50 tabs Artists:  A B C D E F G H I J K L M N O P Q R S T U V W X Y Z 0-9

Wedding Bell Guitar Tabs – Depapepe

CD, Sheet music, Poster

Do you like Wedding Bell? Share with your friends now
TabsTabs v2
Tuning: Standard (Capo 2nd Fret)
Intro:
D G D/F# Em Asus A7 F#m Bm Em Asus A7
e|-2-----0-3---3---3-------3---0-----------2-------3-------3---0---|
B|-3---3---3---3---3-----3-3---2-0-2-----2-3-----3-3-----3-3---2---|
G|-2-2-----------------0---0---0---2---2---4---4---0---0---0---0---|
D|-0---------0---0---0-------2-----2-2-----4-4-----2-2-------2---2-|
A|-------------------------0---0-----------2---------------0---0---|
E|---------3---2---0---------------2---------------0---------------|
Verse 1:
e|-----------------------------------------0-2---------------------|
B|---3/5-3-3-2-2-0-0-------3/5-3-3-2-2-3-3-------------------------|
G|-2-------------------2-2-----------------------------------------|
D|-------------------4---------------------------------------------|
A|-----------------------------------------------------------------|
E|-----------------------------------------------------------------|

e|-----------------------------------------------------------------|
B|-----------3-2---------------------------------------------------|
G|-----0-0-0-------0-0h2-2-2-4---2-2-0-0---------2-2-0-0-----------|
D|-2-4-----------4-------------0---------4-4-2-2---------4-4-2-2---|
A|-----------------------------------------------------------------|
E|-----------------------------------------------------------------|
OR
D F#m Bm F#m
e|-2-----2---------------------2-----------------------------------|
B|-3---3-----3---2-----2-------3-----3-------2-----2---------------|
G|-2-2-----2---2-2---2-----2---2---2-----2---2---2-----2-----------|
D|-0-------------2-2-----2---2---2-----2---2-2-2-----2---2---------|
A|-----------------------------2-----------------------------------|
E|---------------2---------------------------2---------------------|
Em A7 F#m Bm Em Em Asus A7
e|-----------------------------------------------------------------|
B|-0---0---2---2---2---2---3---3---0---0---0---0---3---3---2---2---|
G|-0---0---0---0---2---2---4---4---0---0---0---0---0---0---0---0---|
D|---0---0---2---2-2-2---2-4-4---4---0---0---0---0---2---2---2---2-|
A|---------0---------------2-----------------------0-------0-------|
E|-0---------------2---------------0-------0-----------------------|
Verse 2:
e|-----------------------------------------0-2---------------------|
B|---3/5-3-3-2-2-0-0-------3/5-3-3-2-2-3-3-------------------------|
G|-2-------------------2-2-----------------------------------------|
D|-------------------4---------------------------------------------|
A|-----------------------------------------------------------------|
E|-----------------------------------------------------------------|

e|-----------------------------------------------------------------|
B|-----------3-2---------------------------------------------------|
G|-----0-0-0-------0-0h2-2-2-4-------0-----------------------------|
D|-2-4-----------4-------------0---0---4-2-0---0-------------------|
A|-------------------------------2-----------4---------------------|
E|-----------------------------------------------------------------|
OR
D D F#m F#m Bm Bm F#m F#m
e|-2---2---2---2-------------------2---2---2---2-------------------|
B|-3---3---3---3---2---2---2---2---3---3---3---3---2---2---2---2---|
G|-2-2---2-2-2---2-2---2---2---2-------------------2---2---2---2---|
D|-0-------0-------2-2---2-2-2---2---4---4---4---4-2-2---2-2-2---2-|
A|---------------------------------2-------2-----------------------|
E|-----------------2-------2-----------------------2-------2-------|
Em A7 F#m Bm Em Asus A7 D D7
e|-------------------------------------------------2---2-2---2-----|
B|-0---0---2---2---2---2---3---3---0---0---3---2---3---3-1---1-----|
G|-0---0---0---0---2---2---4---4---0---0---0---0---2-2---2-2---2---|
D|---0---0---2---2-2-2---2-4-4---4---0---0---2---2-0-----0---------|
A|---------0---------------2---------------0-----------------------|
E|-0---------------2---------------0-------------------------------|
Pre-Chorus 1:
e|-2-------2-------------------------------------------------------|
B|---3---3---3---3-------------------------------------------------|
G|-----2-------2---------------------------------------------------|
D|---------------------0---0-2---0-2-0-2-4-------------------------|
A|-----------------2-4---4-----4-----------------------------------|
E|-----------------------------------------------------------------|

e|-----------------------------------------------------------------|
B|-------------2-3-----------2-3-5---------------------------------|
G|-------0-2-4---------0-2-4-2-4-6---------------------------------|
D|-0-2-4-----------2-4---------------------------------------------|
A|-----------------------------------------------------------------|
E|-----------------------------------------------------------------|
OR
G D G D
e|-----------------2-------2-3-5-----------------2-------5-3-2-----|
B|-0-------0-------3---3---3-5-7-0-------0-------3---3---7-5-3-----|
G|-0---0-------0-----2---2-------0---0-------0---2-2---2-----------|
D|---0---0---0---0-0---------------0---0---0---0-0-----------------|
A|-----------------------------------------------------------------|
E|-3-----------------------------3---------------------------------|
G A7 G F#m Bm Em Em Asus A7
e|-----------------------------------------------------------------|
B|-0---0-2---0---2---2---3---3---0---0---0---0---3---3---2---2-----|
G|-0---0-0---0---2---2---4---4---0---0---0---0---0---0---0---0-----|
D|---0-----2---0-2-2---2-4-4---4---0---0---0---0---2---2---2---2---|
A|-------0---------------2-----------------------0-------0---------|
E|-3---------3---2---------------0-------0-------------------------|
Chorus 1:
e|-2-2-3-3/5-2-3-3/5-5-5-7-7/9-------------------------------------|
B|-3-3-5-5/7-3-5-5/7-7-7-8-8/10------------------------------------|
G|-----------------------------------------------------------------|
D|-----------------------------------------------------------------|
A|-----------------------------------------------------------------|
E|-----------------------------------------------------------------|

e|-7-9-9/10-10-10-9-10/12-10-9-------------------------------------|
B|-----------------------------12-10-10-10-12-10-------------------|
G|-----------------------------------------------------------------|
D|-----------------------------------------------------------------|
A|-----------------------------------------------------------------|
E|-----------------------------------------------------------------|

e|-7-9-9/10-10-10-9-10/12-10-9-------9-10--------------------------|
B|-----------------------------12-10----------8-7------------------|
G|------------------------------------------7-----9-7-6-7----------|
D|----------------------------------------9------------------------|
A|-----------------------------------------------------------------|
E|-----------------------------------------------------------------|
OR
D D F#m F#m Fm Em A7 F#m Bm
e|-2---2---2---2---------------------------------------------------|
B|-3---3---3---3---2---2---2---1---0---0---2---2---2---2---3---3---|
G|---2---2---2---3-2---2---2---1---0---0---0---0---2---2---4---4---|
D|-0-------0---------2---2---2---1---0---0---2---2---2---2---4---4-|
A|-----------------------------------------0---------------2-------|
E|-----------------2-------2---1---0---------------2---------------|
Em A7 F#m Bm Em Asus A7 D
e|-------------------------------------------------2-------2-------|
B|-0---0---2---2---2---2---3---3---0---0---3---2---3---3-----------|
G|-0---0---0---0---2---2---4---4---0---0---0---0-----2---2---------|
D|---0---0---2---2---2---2---4---4---0---0---2---2-0---------------|
A|---------0---------------2---------------0-----------------------|
E|-0---------------2---------------0-------------------------------|
Verse 2
Pre-Chorus 2:
e|-2-------2-------------------------------------------------------|
B|---3---3---3---3-------------------------------------------------|
G|-----2-------2---------------------------------------------------|
D|---------------------0---0-2---0-2-2-0-2-4-----------------------|
A|-----------------2-4---4-----4-----------------------------------|
E|-----------------------------------------------------------------|

e|-------------------------------------0-0-2-2-3-3-----------------|
B|-------------2-3-------------2-2-3-3-2-2-3-3-5-5-----------------|
G|-------0-2-4-----0-0-2-2-4-4-2-2-4-4-----------------------------|
D|-0-2-4-----------2-2-4-4-5-5-------------------------------------|
A|-----------------------------------------------------------------|
E|-----------------------------------------------------------------|
OR
G D G D
e|-----------------2-------2-3-5-----------------2-------5-3-2-----|
B|---------0-------3---3---3-5-7-0-------0-------3---3---7-5-3-----|
G|-----0-------0-----2---2-------0---0-------0-----2---2-----------|
D|---0---0---0---0-0---------------0---0---0---0-0-----------------|
A|-----------------------------------------------------------------|
E|-3-----------------------------3---------------------------------|
G A7 G F#m Bm Em Em Asus A7
e|-----------------------------------------------------------------|
B|-0---0-2---0---2---2---3---3---0---0---0---0---3---3---2---2-----|
G|-0---0-0---0---2---2---4---4---0---0---0---0---0---0---0---0-----|
D|---0-----2---0-2-2---2-4-4---4---0---0---0---0---2---2---2---2---|
A|-------0---------------2-----------------------0-------0---------|
E|-3---------3---2---------------0-------0-------------------------|
Chorus 2:
e|-2-2-3-3/5-2-3-3/5-5-5-7-7/9-------------------------------------|
B|-3-3-5-5/7-3-5-5/7-7-7-8-8/10------------------------------------|
G|-----------------------------------------------------------------|
D|-----------------------------------------------------------------|
A|-----------------------------------------------------------------|
E|-----------------------------------------------------------------|

e|-7-9-9/10-10-10-9-10/12-10-9-------------------------------------|
B|-----------------------------12-10-10-10-12-10-------------------|
G|-----------------------------------------------------------------|
D|-----------------------------------------------------------------|
A|-----------------------------------------------------------------|
E|-----------------------------------------------------------------|

e|-7-9-9/10-10-10-9-10/12-10-9-------9-10--------------------------|
B|-----------------------------12-10-------------------------------|
G|-----------------------------------------------------------------|
D|-----------------------------------------------------------------|
A|-----------------------------------------------------------------|
E|-----------------------------------------------------------------|

e|-----------------------------------------------------------------|
B|-10-10-8-8-7-7-----10-10-8-8-7-7---------------------------------|
G|---------------9-9---------------9-7-9-7-------------------------|
D|-----------------------------------------------------------------|
A|-----------------------------------------------------------------|
E|-----------------------------------------------------------------|
OR
D D F#m F#m Fm Em A7 F#m Bm
e|-2---2---2---2---------------------------------------------------|
B|-3---3---3---3---2---2---2---1---0---0---2---2---2---2---3---3---|
G|---2---2---2---3-2---2---2---1---0---0---0---0---2---2---4---4---|
D|-0-------0---------2---2---2---1---0---0---2---2---2---2---4---4-|
A|-----------------------------------------0---------------2-------|
E|-----------------2-------2---1---0---------------2---------------|
Em A7 F#m Bm Em Asus A7
e|-----------------------------------------------------------------|
B|-0---0---2---2---2---2---3---3---0---0---3---3---3---3---2---2---|
G|-0---0---0---0---2---2---4---4---0---0---0---0---0---0---0---0---|
D|---0---0---2---2---2---2---4---4---0---0---0---0---2---2---2---2-|
A|---------0---------------2-----------------------0-------0-------|
E|-0---------------2---------------0-------0-----------------------|
Chorus 1
Outro:
e|-----3-2-0---------3-2-3-2---------------------------------------|
B|-0-3-------3-2-3-5-5-3-5-3---------------------------------------|
G|-------------2-4-6-----------------------------------------------|
D|-----------------------------------------------------------------|
A|-----------------------------------------------------------------|
E|-----------------------------------------------------------------|
OR
e|-----------------------------------------------------------------|
B|-0-------0-------2-----------------------------------------------|
G|-0---0-------0---0-----------------------------------------------|
D|---0---0---0---0-2-----------------------------------------------|
A|-----------------0-----------------------------------------------|
E|-3---------------------------------------------------------------|
D G D/F# Em Asus A7 F#m Bm Em A7 D
e|-2-----0-3---3---3-------3---0-----------2-------3---------0-2---|
B|-3---3---3---3---3-----3-3---2-0-2-----2-3-----3-3-----3-2-2-3---|
G|-2-2-----------------0---0---0---2---2---4---4---0---0---0---2---|
D|-0---------0---0---0-------2-----2-2-----4-4-----2-2-----2---0---|
A|-------------------------0---0-----------2---------------0-------|
E|---------3---2---0---------------2---------------0---------------|
| / slide up
| \ slide down
| h hammer-on
| p pull-off
| ~ vibrato
| + harmonic
| x Mute note

~here's the link if you want to see it: 
~such a beautiful song.. =D





Comments


Popular Depapepe tabs & chords
Share My World Chords
Passion Melancholic Tabs
Sky Sky Sky Intro Tabs
Sky Sky Sky Intro 1 Tabs
Start Intro Tabs
Summer Parade Tabs
The Weathercock Intro Tabs
This Way Intro Tabs
Share My World Ukulele
Spur Ukulele


Song lyrics



↑ Back to top | Tablatures and chords are parodies/interpretations of the original songs. You may use it for private study, scholarship, research or language learning purposes only
© 2014 AZChords.com Contact us | Privacy policy | DMCA | Add/correct tabs | Request tabs | Top 50 tabs