» » »

Someone To Hate Tabs (ver.2)

Artists:  A B C D E F G H I J K L M N O P Q R S T U V W X Y Z # 

Someone To Hate Tabs (ver.2)

Demon Hunter
Rating:
0/5 (0 votes)

Hard to play? Try these video lessons and learn fast.
                might be 99% accurate XD

DROP B!!!

LISTEN TO THE SONG FOR TIMING I CAN ONLY SHOW SO MUCH!!!

V-vibrato
CV-Bend down and fluctuate between notes
>slide up
() this section
PS-pick slide
Pm-palm mute

------------------------------------------------------------------|
------------------------------------------------------------------|
------------------------------------------------------------------|
--------------------------0---------------------------------------|
--------------------------0-----(--0-0---0---0---0-0-0---0---0--)-|
-000--000----000--000----0-----(--0-0---0---0---0-0-0---0---0--)--|      (2x)

                                            MAIN RIFF
-------------------------------------------------------------------|
-------------------------------------------------------------------|
-------------------------------------------------------------------|
----------------------------------------------555--444-------------|
------------55555--444--555--666-555-66-55------------------55555--|
-000--000----------------------------------------------------------|


---------------------------------------------------------------|   Okay so here you
---------------------------------------------------------------|   want to play this
---------------------------------------------------------------|   riff 4x
---------------------------------------------------------------|   Idk if thats how many just
-----------------------------555--444444444--------------------|   hold it
-444--555--666--555--66-55-------------------------------------|

After 2nd time

----------------------------------------------------------------|
--10----slide down----------------------------------------------|
---7------------------------------------------------------------|
----------------------------------------------------------------|
---------------------0------------------------------------------|
---------------------0-------then play the riff 2x (total 4x)---|


-------------------------------------------------------------------|
-------------------------------------------------------------------|
-------------------------------------------777--666----------------|
-------------77777--666--777--888-77-88----------------------------|
-------------------------------------------------------------------|
-000--000----------------------------------------------------------|


---------------------------------------------------------------------|
---------------------------------------------------------------------|
---------------------------------------------------------------------|
---------------------------------------------------------------------|
-------------------------------7V------Then main riff whole thing 2x-|
-77777--666--777--888-77-88------------------------------------------|



---------------------------------|
---------------------------------|
---------------------------------|this part you want to temelo pic while slowly bending down more
-----------(-------4TV--)--------|              2x
-0-3-2-----(-0----------)----3x--|
-0-3-2--3V-(-0----------)--------|
PmPmPm

--------------------------------------------------------------------------------------|
--------------------------------------------------------------------------------------|
--------------------------------------------------------------------------------------|
--------------------------------------------------------------------------------------|
-5-----8-----7-----10-0-8-0-----------------------------------------------------------| 2x
---0-0---0-0---0-0--------------------------------------------------------------------|
8x--Then to main riff 2x high pitched vertion (With main riff after

-------------------------------------------------------------------|
-------------------------------------------------------------------|
-------------------------------------------------------------------|
-----------(-------4TV--)------------------------------------------|              2x
-0-3-2-3V--(-0----------)----3x------------------------------------|
-0-3-2-----(-0----------)------------------------------------------|
PmPmPm


You know the minor bar chord shape on the fifth string i will call out the root 
listen to the song for the timing

5   7   8   4 5  literally its down up down up 1 and two and three and four and 
for the timing do this twice

then do the same but the roots 5  7  10 the slide down on the sixth starting with 12


-----------------------------------------------------------------------|
-----------------------------------------------------------------------|
-----0------(-------------0---------------)----------------------------|
-0-4---4----(----------4----4->--5V-5V---)-----------------------------|
------------(-----------------------------)----------------------------|
------------(--10V--0---------------------)------PS--------------------|


----------------------10---------------------------------------------|
--------10--11--10--------10---8h9------10---11---10-----------------|
---7-7----7----7---7----7----7------7-7----7----7-----7---14-12-10---|
---------------------------------------------------------------------|
---------------------------------------------------------------------|
---------------------------------------------------------------------|


-----------------------------------------------------------------12-13--|
------------------------------------10---11---10----13----10------------|
--14-12-10-14-12-10-14-12-10--7-7----7----7-----7-----7-----7-----------|
------------------------------------------------------------------------|
------------------------------------------------------------------------|
------------------------------------------------------------------------|


--------------------------------------------------------------------|
-------10---11---10-------------------------------------------------|
--7-7-----7----7----7---14-12-10-14-12-10-14-12-10-14-12-10--12CV---|
--------------------------------------------------------------------|
--------------------------------------------------------------------|
--------------------------------------------------------------------|



---------------------------------------Random taping down the neck start around 15-|
-----------------------------------------------------------------------------------|
--------10-12-12CV--14-12-10-12CV--------------------------------------------------|
--10-12----------------------------------------------------------------------------|
-----------------------------------------------------------------------------------|
-----------------------------------------------------------------------------------|


-----------------------------20-19-17---------------------------------|
---Random taping --start at 14------------20-19-17--------------------|
--------------------------------------------------19-17-19CV--17-19---|
----------------------------------------------------------------------|
----------------------------------------------------------------------|
----------------------------------------------------------------------|


-------------------17-20CV------------------------------------------|
--17-20CV---17-20---------------------------------------------------|
------------------------------------------------------10------10----|
--------------------------------------------------------------------|
-----------------------------7777777777777777--8888----88888--------|
--------------------------------------------------------------------|


----------------------------------------------------------------------|
----------------------------------------------------------------------|
-------6------6----6v-------------------------------------------------|
----------------------------------------------------------------------|
-4444-----44----44----(-5-----8-----7-----10-0-8-0-)---4x-------------|
-----------------------(--0-0---0-0---0-0-----------)-----------------|


Main Riff 2x
High pitched with riff 2x

hey yall thanx for the view good luck keep learning comment for error God Bless
            
Hard to play? Try these video lessons and learn fast. | Correct




comments powered by Disqus
↑ Back to top | Tablatures and chords are parodies/interpretations of the original songs. You may use it for private study, scholarship, research or language learning purposes only