>
 >
One Thousand Apologies 2

One Thousand Apologies 2 Guitar Tabs

Demon Hunter - One Thousand Apologies 2 chords, tabs, tablatures, lyrics

Guitar lessons | Add/correct | Request | Top 50 tabs Artists:  A B C D E F G H I J K L M N O P Q R S T U V W X Y Z 0-9

One Thousand Apologies 2 Guitar Tabs – Demon Hunter

CD, Sheet music, Poster

Do you like One Thousand Apologies 2? Share with your friends now
ChordsTabsTabs v2Tabs v3Ukulele
B F# B E G# C#

intro
    1\2 
-5-------------------------------------------|x3
---5^-3-5-3----------------------------------|
---------------------------------------------|
---------------------------------------------|
---------------------------------------------|
---------------------------------------------|

    1\2
---------------------------------------------|
-5-4^-4-2-4----------------------------------|
---------------------------------------------|
---------------------------------------------|
---------------------------------------------|
---------------------------------------------|

     1\2
-5-------------------------------------------|x3
---5^-3-5-3----------------------------------|
---------------------------------------------|
---------------------------------------------|
---------------------------------------------|
---------------------------------------------|

    1\2
---------------------------------------------|
-5-4^-4-2------------------------------------|
----------5----------------------------------|
------------------7-7-7-7------7-7-7-7-------|
------------------7-7-7-7-rest-7-7-7-7-------|
------------------7-7-7-7------7-7-7-7-------|


verse 1 x2
-----------------------------------------------------------------------|
-----------------------------------------------------------------------|
-----------------------------------------------------------------------|
-------5-5-5-------5-5-5-----5-5---------------------------------------|
-0-0-0-------0-0-0-------0-0------------5-5-5-------5-5-5------5-5-----|
----------------------------------5-5-5-------5-5-5-------5-5----------|


-----------------------------------------------------------------------|
-----------------------------------------------------------------------|
-----------------------------------------------------------------------|
-------2-2-2-------2-2-2------2-2--------------------------------------|
------------------------------------------5-5-5-------5-5-5-5-3-3-3-3--|
-2-2-2-------2-2-2--------2-2-------3-3-3-------3-3-3------------------|



verse 1 Continued x2

-----------------------------------------------------------------------|
-----------------------------------------------------------------------|
-----------------------------------------------------------------------|
-7-7-7-7----7-7-7-7---7---5-5-5-5---5-5-5-5---5---2-2-2-2---2-2-2-2---2|
-7-7-7-7-R--7-7-7-7-R-7-R-5-5-5-5-R-5-5-5-5-R-5-R-2-2-2-2-R-2-2-2-2-R-2|
-7-7-7-7----7-7-7-7---7---5-5-5-5---5-5-5-5---5---2-2-2-2---2-2-2-2---2|



-----------------------------------------------------------------------|
-----------------------------------------------------------------------|
-----------------------------------------------------------------------|
3-3-3-3----3-3-3-3---3-------------------------------------------------|
3-3-3-3-R--3-3-3-3-R-3-------------------------------------------------|
3-3-3-3----3-3-3-3---3-------------------------------------------------|






pre chours 
------------------------------------------------------------------------|
------------------------------------------------------------------------|
------------------------------------------------------------------------|
------------------------------------------------------------------------|
------------------------------------------------------------------------|
-5-5-5-5-5-5-5-5-5-5-5-5-5-7-7-7-7---3-3-3-3-3-3-3-3-3-3-3-3-7-7-7-7----|

------------------------------------------------------------------------|
------------------------------------------------------------------------|
------------------------------------------------------------------------|
------------------------------------------------------------------------|
------------------------------------------------------------------------|
--2-2-2-2-2-2-2-2-2-2-2-2-7-7-7-7-3-3-3-3-3-3-3-3-3-3-3-3-3-3-3-3-------|



chours x 2

-15-15-15-15-------------15-15-15-15-------------------------|
-------------12-12-12-12-------------12-12-12-12-------------|
---------------------------------------------------R---------|
-------------------------------------------------------------|
-------------------------------------------------------------|
-------------------------------------------------------------|




----------------------------------------------------------|
----------------------------------------------------------|
----------------------------------------------------------|
-7-7-7-7---7-7-7-7----------------------------------------|
-7-7-7-7-R-7-7-7-7----------------------------------------|
-7-7-7-7---7-7-7-7----------------------------------------|






verse 2 x2 (i think its palm muted)
-----------------------------------------------------------------------|
-----------------------------------------------------------------------|
-----------------------------------------------------------------------|
-------5-5-5-------5-5-5-----5-5---------------------------------------|
-0-0-0-------0-0-0-------0-0------------5-5-5-------5-5-5------5-5-----|
----------------------------------5-5-5-------5-5-5-------5-5----------|


-----------------------------------------------------------------------|
-----------------------------------------------------------------------|
-----------------------------------------------------------------------|
-------2-2-2-------2-2-2------2-2--------------------------------------|
------------------------------------------5-5-5-------5-5-5-5-3-3-3-3--|
-2-2-2-------2-2-2--------2-2-------3-3-3-------3-3-3------------------|







verse 2 Continued x2

-----------------------------------------------------------------------|
-----------------------------------------------------------------------|
-----------------------------------------------------------------------|
-7-7-7-7----7-7-7-7---7---5-5-5-5---5-5-5-5---5---2-2-2-2---2-2-2-2---2|
-7-7-7-7-R--7-7-7-7-R-7-R-5-5-5-5-R-5-5-5-5-R-5-R-2-2-2-2-R-2-2-2-2-R-2|
-7-7-7-7----7-7-7-7---7---5-5-5-5---5-5-5-5---5---2-2-2-2---2-2-2-2---2|



-----------------------------------------------------------------------|
-----------------------------------------------------------------------|
-----------------------------------------------------------------------|
3-3-3-3----3-3-3-3---3-------------------------------------------------|
3-3-3-3-R--3-3-3-3-R-3-------------------------------------------------|
3-3-3-3----3-3-3-3---3-------------------------------------------------|




pre chours
------------------------------------------------------------------------|
------------------------------------------------------------------------|
------------------------------------------------------------------------|
------------------------------------------------------------------------|
------------------------------------------------------------------------|
-5-5-5-5-5-5-5-5-5-5-5-5-5-7-7-7-7---3-3-3-3-3-3-3-3-3-3-3-3-7-7-7-7----|

------------------------------------------------------------------------|
------------------------------------------------------------------------|
------------------------------------------------------------------------|
------------------------------------------------------------------------|
------------------------------------------------------------------------|
--2-2-2-2-2-2-2-2-2-2-2-2-7-7-7-7-3-3-3-3-3-3-3-3-3-3-3-3-3-3-3-3-------|






chours x 6? you repeat this part a lot

-15-15-15-15-------------15-15-15-15-------------------------|
-------------12-12-12-12-------------12-12-12-12-------------|
---------------------------------------------------R---------|
-------------------------------------------------------------|
-------------------------------------------------------------|
-------------------------------------------------------------|




bridge 				|:	1\2	1\2	1\2	   1  :|2			
--------------------------------------------------------------------------|
-----------------------------------8-0-7^--8-0-7^---8-0-7^---8-0-10^------|
--------------------------------------------------------------------------|
2----5--2---5--2---5--2---------------------------------------------------|
2>---3--2>--3--2>--3--2>--------------------------------------------------|
2-------2------2------2---------------------------------------------------|



 							       ^^^ 	
--------------------------------------------------------------------------|
-8-0-8-0-8-0-8-0-10-0-10-0-10-0-10-0-7-0-7-0-7-0-7-0-7-0-7-0-7------------|
---------------------------------------------------------------9----------|
--------------------------------------------------------------------------|
--------------------------------------------------------------------------|
--------------------------------------------------------------------------|
                                                               1
--------------------------------------------------------------------------|
-8-0-8-0-8-0-8-0-10-0-10-0-10-0-10-0-7-0-7-0-7-0-7-0-7-0-7-0-7------------|
---------------------------------------------------------------9^---------|
--------------------------------------------------------------------------|
--------------------------------------------------------------------------|
--------------------------------------------------------------------------|



pre chours
------------------------------------------------------------------------|
------------------------------------------------------------------------|
------------------------------------------------------------------------|
------------------------------------------------------------------------|
------------------------------------------------------------------------|
-5-5-5-5-5-5-5-5-5-5-5-5-5-7-7-7-7---3-3-3-3-3-3-3-3-3-3-3-3-7-7-7-7----|

------------------------------------------------------------------------|
------------------------------------------------------------------------|
------------------------------------------------------------------------|
------------------------------------------------------------------------|
------------------------------------------------------------------------|
--2-2-2-2-2-2-2-2-2-2-2-2-7-7-7-7-3-3-3-3-3-3-3-3-3-3-3-3-3-3-3-3-------|



chours x 8-10? you repeat this part a lot

-15-15-15-15-------------15-15-15-15-------------------------|
-------------12-12-12-12-------------12-12-12-12-------------|
---------------------------------------------------R---------|
-------------------------------------------------------------|
-------------------------------------------------------------|
-------------------------------------------------------------|




----------------------------------------------------------|
----------------------------------------------------------|
----------------------------------------------------------|
-7-7-7-7---7-7-7-7----------------------------------------|
-7-7-7-7-R-7-7-7-7----------------------------------------|
-7-7-7-7---7-7-7-7----------------------------------------|





Comments


Popular Demon Hunter tabs & chords
My Throat Is An Open Grave Bass Tabs
Fading Away Chords
I Am A Stone Chords
One Thousand Apologies Chords
Deteriorate Tabs
God Forsaken Tabs
My Throat Is An Open Grave 2 Tabs
One Thousand Apologies 1 Tabs
Science Of Lies 2 Tabs
Fading Away 2 Ukulele


Song lyrics



↑ Back to top | Tablatures and chords are parodies/interpretations of the original songs. You may use it for private study, scholarship, research or language learning purposes only
© 2014 AZChords.com Contact us | Privacy policy | DMCA | Add/correct tabs | Request tabs | Top 50 tabs