>
 >
One Thousand Apologies 1

One Thousand Apologies 1 Guitar Tabs

Demon Hunter - One Thousand Apologies 1 chords, tabs, tablatures, lyrics

Guitar lessons | Add/correct | Request | Top 50 tabs Artists:  A B C D E F G H I J K L M N O P Q R S T U V W X Y Z 0-9

One Thousand Apologies 1 Guitar Tabs – Demon Hunter

CD, Sheet music, Poster

Do you like One Thousand Apologies 1? Share with your friends now
ChordsTabsTabs v2Tabs v3Ukulele
INTRO 
------------------------------------------------|
------------------------------------------------|
------------------------------------------------|
--4-4-4-4-4-7-7-7-7-7-/14-\-0-0-0-0-0-0-0-0-0-0-|
--4-4-4-4-4-7-7-7-7-7-/14-\-0-0-0-0-0-0-0-0-0-0-|
--4-4-4-4-4-7-7-7-7-7-/14-\-0-0-0-0-0-0-0-0-0-0-| X2
INTERLUDE
-------------------|
-------------------|
-------------------|
--4-4-4-4--4-4-4-4-|
--4-4-4-4--4-4-4-4-|
--4-4-4-4--4-4-4-4-|
VERSE:
-----------------------------------------------------------------------|
-----------------------------------------------------------------------|
-----------------------------------------------------------------------|
--------5-5-5-------5-5-5-----5-5-5------------------------------------|
--0-0-0-------0-0-0------0-0-0-----------5-5-5-------5-5-5-------5-5-5-|
------------------------------------5-5-5------5-5-5-------5-5-5-------|
VERSE Continued:
----------------------------------------------------------------------|
----------------------------------------------------------------------|
----------------------------------------------------------------------|
--------2-2-2-------2-2-2-------2-2-2---------------------------------|
--------------------------------------------5-5-5-------5-5-5-3-3-3-3-|
--2-2-2-------2-2-2-------2-2-2-------0-0-0-------0-0-0---------------| X2
VERSE END Both Guitars:
-----------------------------------------------------------------|
-----------------------------------------------------------------|
-----------------------------------------------------------------|
--7-7-7--7-7-7--7-7-7--5-5-5--5-5-5--5-5-5--2-2-2--2-2-2--2-2-2--|
--7-7-7--7-7-7--7-7-7--5-5-5--5-5-5--5-5-5--2-2-2--2-2-2--2-2-2--|
--7-7-7--7-7-7--7-7-7--5-5-5--5-5-5--5-5-5--2-2-2--2-2-2--2-2-2--|
VERSE END Continued:
-----------------------|
-----------------------|
-----------------------|
--0-0-0--0-0-0--0-0-0--|
--0-0-0--0-0-0--0-0-0--|
--0-0-0--0-0-0--0-0-0--| X2
PRE CHORUS Both Guitars:
--------------------------------------------------------------|
--------------------------------------------------------------|
--------------------------------------------------------------|
--------------------------------------------------------------|
--5-5-5-5-5-5-5-5-5-5-5-5-7-7-7-0-0-0-0-0-0-0-0-0-0-0-0-7-7-7-|
--5-5-5-5-5-5-5-5-5-5-5-5-7-7-7-0-0-0-0-0-0-0-0-0-0-0-0-7-7-7-|
PRE CHORUS Continued:
-----------------------------------------------------------|
-----------------------------------------------------------|
-----------------------------------------------------------|
-----------------------------------------------------------|
--2-2-2-2-2-2-2-2-2-2-2-2-7-7-7-0-0-0-0-0-0-0-0-0-0-0-0-0--|
--2-2-2-2-2-2-2-2-2-2-2-2-7-7-7-0-0-0-0-0-0-0-0-0-0-0-0-0--|
CHORUS
------------------------------------------------|
------------------------------------------------|
------------------------------------------------|
--4-4-4-4-4-7-7-7-7-7-/12-\-0-0-0-0-0-0-0-0-0-0-|
--4-4-4-4-4-7-7-7-7-7-/12-\-0-0-0-0-0-0-0-0-0-0-|
--4-4-4-4-4-7-7-7-7-7-/12-\-0-0-0-0-0-0-0-0-0-0-| X4
Play INTERLUDE
Play VERSE X2
Play VERSE END X2
Play PRE CHORUS
Play CHORUS X2
BRIDGE 
-----------------------------------|
-----------------------------------|
-----------------------------------|
--6-----7--6-----7--6-----7--6-----|
--6-----5--6-----5--6-----5--6-----|
--6--------6--------6--------6-----|

--------------------------------------------------------------------|
--------------------------------------------------------------------|
--------------------------------------------------------------------|
---------------------------------------------------------------10---|
--6-6-6-6-6-6-6-6-6-6-6-6-6-6-6-6-6-6-6-6-6-6-6-6-6-6-6-6-6-6--10---|
--6-6-6-6-6-6-6-6-6-6-6-6-6-6-6-6-6-6-6-6-6-6-6-6-6-6-6-6-6-6--10---| X4
   . . . . . . . . . . . . . . . . . . . . . . . . . . . . .
PRE-CHORUS
--------------------------------------------------------------|
--------------------------------------------------------------|
--------------------------------------------------------------|
--------------------------------------------------------------|
--5-5-5-5-5-5-5-5-5-5-5-5-7-7-7-0-0-0-0-0-0-0-0-0-0-0-0-7-7-7-|
--5-5-5-5-5-5-5-5-5-5-5-5-7-7-7-0-0-0-0-0-0-0-0-0-0-0-0-7-7-7-|
PRE CHORUS Continued:
-----------------------------------------------------------|
-----------------------------------------------------------|
-----------------------------------------------------------|
-----------------------------------------------------------|
--2-2-2-2-2-2-2-2-2-2-2-2-7-7-7-0-0-0-0-0-0-0-0-0-0-0-0-0--|
--2-2-2-2-2-2-2-2-2-2-2-2-7-7-7-0-0-0-0-0-0-0-0-0-0-0-0-0--|
Play CHORUS X2
Ending:
-----------------------|
-----------------------|
-----------------------|
--5*v-4-4-4-4--4-4-4-4-|
------4-4-4-4--4-4-4-4-|
------4-4-4-4--4-4-4-4-|





Comments


Popular Demon Hunter tabs & chords
Not I 3 Bass Tabs
Dead Flowers Chords
My Heartstrings Come Undone Chords
Annihlate The Corrupt Tabs
Blood In The Tears Tabs
Lifewar Tabs
My Throat Is An Open Grave 2 Tabs
Screams Of The Undead Tabs
Through The Black Tabs
Undying Tabs


Song lyrics



↑ Back to top | Tablatures and chords are parodies/interpretations of the original songs. You may use it for private study, scholarship, research or language learning purposes only
© 2014 AZChords.com Contact us | Privacy policy | DMCA | Add/correct tabs | Request tabs | Top 50 tabs