» » »

Demon Hunter, Not I Tabs (ver.1)

Artists:  A B C D E F G H I J K L M N O P Q R S T U V W X Y Z # 

Not I Tabs (ver.1)

Demon Hunter Tabs
Rating:
0/5 (0 votes)
Not I lessons Tabs too difficult? Try these video lessons and learn fast
                Tuning:
Guitar 1: Don Clark : B-F#-B-E-G#-C#
Guitar 2: Ethan Luck: B-F#-B-E-G#-C#

h=hammer on
b=bend
p=pull off
/=slide up
\=slide down
palm mute=.

Intro
Both Guitars (0:00 - 0:04)
C#|-----------------------|
G#|-----------------------|
E |-----------------------|
B |-6-4-3-1-0/1-3/4\3-1-0-|
F#|-6-4-3-1-0/1-3/4\3-1-0-|
B |-6-4-3-1-0/1-3/4\3-1-0-|

Bass (0:00-0:04)
E |-----------------------|
B |-----------------------|
F#|-----------------------|
B |-6-4-3-1-0/1-3/4\3-1-0-|

Guitar 1 (0:04 - 0:15)
|---------------------------------|-|
|---------------------------------| |
|---------------------------------| |- Repeat
|-0/1-1-0/1-1-0/1-1-0/1-1-0/1/3---| |-   x4
|-0/1-1-0/1-1-0/1-1-0/1-1-0/1/3-1-| |
|-0/1-1-0/1-1-0/1-1-0/1-1-0/1/3---|-|

Guitar 2 (0:04 - 0:09)
|---------------------------------|-|
|---------------------------------| |
|---------------------------------| |- Repeat
|-------------------------0/1/3---| |-   x2
|-------------------------0/1/3-1-| |
|-------------------------0/1/3---|-|

Guitar 2 (0:09 - 0:12)
|----------------|
|----------------|
|----------------|
|-0-0-0-0-0/1/3--|
|-0-0-0-0-0/1/3-1|
|-0-0-0-0-0/1/3--|

Guitar 2 (0:12 - 0:15)
|--------------------------------|
|--------------------------------|
|--------------------------------|
|0/1-1-0/1-1-0/1-1-0/1-1-0/1/3---|
|0/1-1-0/1-1-0/1-1-0/1-1-0/1/3-1-|
|0/1-1-0/1-1-0/1-1-0/1-1-0/1/3---|

Bass (0:04 - 0:09)
|---------------------------------|-|
|---------------------------------| |- Repeat
|-------------------------------1-| |-   x2
|-------------------------0/1/3---|-|

Bass (0:09 - 0:12)
|-----------------|
|-----------------|
|---------------1-|
|-0-0-0-0-0/1/3---|

Bass (0:12 - 0:15)
|--------------------------------|
|--------------------------------|
|------------------------------1-|
|0/1-1-0/1-1-0/1-1-0/1-1-0/1/3---|

Pause (0:15 - 0:17)

Both Guitars (0:17 - 0:25)
|---------------------------------|-|
|---------------------------------| |
|---------------------------------| |- Repeat
|-0/1-1-0/1-1-0/1-1-0/1-1-0/1/3---| |-   x3
|-0/1-1-0/1-1-0/1-1-0/1-1-0/1/3-1-| |
|-0/1-1-0/1-1-0/1-1-0/1-1-0/1/3---|-|

Bass (0:17 - 0:25)
|---------------------------------|-|
|---------------------------------| |- Repeat
|-------------------------------1-| |-   x3
|-0/1-1-0/1-1-0/1-1-0/1-1-0/1/3---|-|

Both Guitars (0:25 - 0:28)
|---------------------------------|
|---------------------------------|
|---------------------------------|
|-6\5-5-6\5-5-6\5-5-6\5-5-6\5-5/6-|
|-6\5-5-6\5-5-6\5-5-6\5-5-6\5-5/6-|
|-6\5-5-6\5-5-6\5-5-6\5-5-6\5-5/6-|

Bass (0:25 - 0:28)
|---------------------------------|
|---------------------------------|
|---------------------------------|
|-6\5-5-6\5-5-6\5-5-6\5-5-6\5-5/6-|

Verse 1
Both Guitars (0:28 - 0:37)
|---------------------------------|-|
|---------------------------------| |
|---------------------------------| |- Repeat
|-0/1-1-0/1-1-0/1-1-0/1-1-0/1/3---| |-   x3
|-0/1-1-0/1-1-0/1-1-0/1-1-0/1/3-1-| |
|-0/1-1-0/1-1-0/1-1-0/1-1-0/1/3---|-|

Bass (0:28 - 0:37)
|---------------------------------|-|
|---------------------------------| |- Repeat
|-------------------------------1-| |-   x3
|-0/1-1-0/1-1-0/1-1-0/1-1-0/1/3---|-|

Both Guitars (0:37 - 0:40)
|---------------------------------|
|---------------------------------|
|---------------------------------|
|-6\5-5-6\5-5-6\5-5-6\5-5-6\5-5/6-|
|-6\5-5-6\5-5-6\5-5-6\5-5-6\5-5/6-|
|-6\5-5-6\5-5-6\5-5-6\5-5-6\5-5/6-|

Bass (0:37 - 0:40)
|---------------------------------|
|---------------------------------|
|---------------------------------|
|-6\5-5-6\5-5-6\5-5-6\5-5-6\5-5/6-|

Verse 2
Both Guitars (0:40 - 0:48)
|---------------------------------|-|
|---------------------------------| |
|---------------------------------| |- Repeat
|-0/1-1-0/1-1-0/1-1-0/1-1-0/1/3---| |-   x3
|-0/1-1-0/1-1-0/1-1-0/1-1-0/1/3-1-| |
|-0/1-1-0/1-1-0/1-1-0/1-1-0/1/3---|-|

Bass (0:40 - 0:48)
|---------------------------------|-|
|---------------------------------| |- Repeat
|-------------------------------1-| |-   x3
|-0/1-1-0/1-1-0/1-1-0/1-1-0/1/3---|-|

Both Guitars (0:48 - 0:51)
|---------------------------------|
|---------------------------------|
|---------------------------------|
|-6\5-5-6\5-5-6\5-5-6\5-5-6\5-5/6-|
|-6\5-5-6\5-5-6\5-5-6\5-5-6\5-5/6-|
|-6\5-5-6\5-5-6\5-5-6\5-5-6\5-5/6-|

Bass (0:48 - 0:51)
|---------------------------------|
|---------------------------------|
|---------------------------------|
|-6\5-5-6\5-5-6\5-5-6\5-5-6\5-5/6-|

Pre-Chorus
Guitar 1 (0:51 - 1:14)
|-8-------8----------------------8------8---------------------|-|
|--8-8h9---8-8h9--9-----8---------8-8h9--8-8h9--9-----8-------| |
|------------------10-8--10-8h10-----------------10-8---10-8b-| |- Repeat
|-------------------------------------------------------------| |-   x2
|-------------------------------------------------------------| |
|-------------------------------------------------------------|-|

Guitar 2 (0:51 - 1:14)
|----------------------------------------------------|-|
|----------------------------------------------------| |
|----------------------------------------------------| |- Repeat
|-33333-33333-66666-66666-1-33333-33333-66666-66666-1| |-   x2
|-33333-33333-66666-66666-1-33333-33333-66666-66666-1| |
|-33333-33333-66666-66666-1-33333-33333-66666-66666-1|-|

Bass (0:51 - 1:14)
|----------------------------------------------------|-|
|----------------------------------------------------| |- Repeat
|----------------------------------------------------| |-   x2
|-33333-33333-66666-66666-1-33333-33333-66666-66666-1|-|

Chorus
Both Guitars (1:14 - 1:25)
|----------------------------------|-|
|----------------------------------| |
|----------------------------------| |- Repeat
|-1-1\0----1-1\0----1-1\0----1-1\0-| |-   x4
|-1-1\0----1-1\0----1-1\0----1-1\0-| |
|-1-1\0----1-1\0----1-1\0----1-1\0-|-|

Bass (1:14 - 1:25)
|----------------------------------|-|
|----------------------------------| |- Repeat
|----------------------------------| |-   x4
|-1-1\0----1-1\0----1-1\0----1-1\0-|-|

Guitar 1 (1:25 - 1:35)
|--------------------------|-|
|--------------------------| |
|-0h5h7--------------------| |- Repeat
|-------8p7p0-0h5h6-6p5p0--| |-   x4
|--------------------------| |
|--------------------------|-|

Guitar 2 (1:25 - 1:35)
|-----------------------------------------|-|
|-----------------------------------------| |
|-----------------------------------------| |- Repeat
|-6-6-0--1-1\0----1-1\0----1-1\0----1-1\0-| |-   x4
|-6-6-0--1-1\0----1-1\0----1-1\0----1-1\0-| |
|-6-6-0--1-1\0----1-1\0----1-1\0----1-1\0-|-|

Bass (1:25 - 1:35)
|-----------------------------------------|-|
|-----------------------------------------| |- Repeat
|-----------------------------------------| |-   x4
|-6-6-0--1-1\0----1-1\0----1-1\0----1-1\0-|-|

Post-Chorus
Both Guitars (1:35 - 1:38)
|---------------------------------|
|---------------------------------|
|---------------------------------|
|-6\5-5-6\5-5-6\5-5-6\5-5-6\5-5/6-|
|-6\5-5-6\5-5-6\5-5-6\5-5-6\5-5/6-|
|-6\5-5-6\5-5-6\5-5-6\5-5-6\5-5/6-|

Bass (1:35 - 1:38)
|---------------------------------|
|---------------------------------|
|---------------------------------|
|-6\5-5-6\5-5-6\5-5-6\5-5-6\5-5/6-|

Verse 2
Pause.
Guitar 1 (1:38 - 1:40)
|-------------------------|
|-------------------------|
|-------------------------|
|-------------------------|
|-------------------------|
|-0/1-1-0/1-1-0/1-1-0/1-1-|

Guitar 1 (1:40: - 1:41)
|---------|
|---------|
|---------|
|-0/1/3---|
|-0/1/3-1-|
|-0/1/3---|

Both Guitars (1:41 - 1:47)
|---------------------------------|-|
|---------------------------------| |
|---------------------------------| |- Repeat
|-0/1-1-0/1-1-0/1-1-0/1-1-0/1/3---| |-   x2
|-0/1-1-0/1-1-0/1-1-0/1-1-0/1/3-1-| |
|-0/1-1-0/1-1-0/1-1-0/1-1-0/1/3---|-|

Bass (1:41 - 1:47)
|---------------------------------|-|
|---------------------------------| |- Repeat
|-------------------------------1-| |-   x2
|-0/1-1-0/1-1-0/1-1-0/1-1-0/1/3---|-|

Both Guitars (1:47 - 1:49)
|---------------------------------|
|---------------------------------|
|---------------------------------|
|-6\5-5-6\5-5-6\5-5-6\5-5-6\5-5/6-|
|-6\5-5-6\5-5-6\5-5-6\5-5-6\5-5/6-|
|-6\5-5-6\5-5-6\5-5-6\5-5-6\5-5/6-|

Bass (1:47 - 1:49)
|---------------------------------|
|---------------------------------|
|---------------------------------|
|-6\5-5-6\5-5-6\5-5-6\5-5-6\5-5/6-|

Both Guitars (1:49 - 1:58)
|---------------------------------|-|
|---------------------------------| |
|---------------------------------| |- Repeat
|-0/1-1-0/1-1-0/1-1-0/1-1-0/1/3---| |-   x3
|-0/1-1-0/1-1-0/1-1-0/1-1-0/1/3-1-| |
|-0/1-1-0/1-1-0/1-1-0/1-1-0/1/3---|-|

Bass (1:49 - 1:58)
|---------------------------------|-|
|---------------------------------| |- Repeat
|-------------------------------1-| |-   x3
|-0/1-1-0/1-1-0/1-1-0/1-1-0/1/3---|-|

Both Guitars (1:58 - 2:01)
|---------------------------------|
|---------------------------------|
|---------------------------------|
|-6\5-5-6\5-5-6\5-5-6\5-5-6\5-5/6-|
|-6\5-5-6\5-5-6\5-5-6\5-5-6\5-5/6-|
|-6\5-5-6\5-5-6\5-5-6\5-5-6\5-5/6-|

Bass (1:58 - 2:01)
|---------------------------------|
|---------------------------------|
|---------------------------------|
|-6\5-5-6\5-5-6\5-5-6\5-5-6\5-5/6-|

Pre-Chorus
Guitar 1 (2:01 - 2:24)
|-8-------8----------------------8------8---------------------|-|
|--8-8h9---8-8h9--9-----8---------8-8h9--8-8h9--9-----8-------| |
|------------------10-8--10-8h10-----------------10-8---10-8b-| |- Repeat
|-------------------------------------------------------------| |-   x2
|-------------------------------------------------------------| |
|-------------------------------------------------------------|-|

Guitar 2 (2:01 - 2:24)
|----------------------------------------------------|-|
|----------------------------------------------------| |
|----------------------------------------------------| |- Repeat
|-33333-33333-66666-66666-1-33333-33333-66666-66666-1| |-   x2
|-33333-33333-66666-66666-1-33333-33333-66666-66666-1| |
|-33333-33333-66666-66666-1-33333-33333-66666-66666-1|-|

Bass (2:01 - 2:24)
|----------------------------------------------------|-|
|----------------------------------------------------| |- Repeat
|----------------------------------------------------| |-   x2
|-33333-33333-66666-66666-1-33333-33333-66666-66666-1|-|

Chorus
Both Guitars (2:24 - 2:34)
|----------------------------------|-|
|----------------------------------| |
|----------------------------------| |- Repeat
|-1-1\0----1-1\0----1-1\0----1-1\0-| |-   x4
|-1-1\0----1-1\0----1-1\0----1-1\0-| |
|-1-1\0----1-1\0----1-1\0----1-1\0-|-|

Bass (2:24 - 2:34)
|----------------------------------|-|
|----------------------------------| |- Repeat
|----------------------------------| |-   x4
|-1-1\0----1-1\0----1-1\0----1-1\0-|-|

Guitar 1 (2:35 - 2:45)
|--------------------------|-|
|--------------------------| |
|-0h5h7--------------------| |- Repeat
|-------8p7p0-0h5h6-6p5p0--| |-   x4
|--------------------------| |
|--------------------------|-|

Guitar 2 (2:35 - 2:45)
|-----------------------------------------|-|
|-----------------------------------------| |
|-----------------------------------------| |- Repeat
|-6-6-0--1-1\0----1-1\0----1-1\0----1-1\0-| |-   x4
|-6-6-0--1-1\0----1-1\0----1-1\0----1-1\0-| |
|-6-6-0--1-1\0----1-1\0----1-1\0----1-1\0-|-|

Bass (2:35 - 2:45)
|-----------------------------------------|-|
|-----------------------------------------| |- Repeat
|-----------------------------------------| |-   x4
|-6-6-0--1-1\0----1-1\0----1-1\0----1-1\0-|-|

Post-Chorus
Guitar 1 (2:45 - 2:49)
|--------------------------------------------------------|
|--------------------------------------------------------|
|-10-10-10-10-10-10-10-10-10-10-10-10-10-10-10-10-10-----|
|--x--x--x--x--x--x--x--x--x--x--x--x--x--x--x--x--x-----|
|--8--8--8--8--8--8--8--8--8--8--8--8--8--8--8--8--8-----|
|--------------------------------------------------------|

Guitar 2 (2:45 - 2:49)
|--------------------------------------------------------|
|--------------------------------------------------------|
|-13-13-13-13-13-13-13-13-13-13-13-13-13-13-13-13-13-----|
|--x--x--x--x--x--x--x--x--x--x--x--x--x--x--x--x--x-----|
|-11-11-11-11-11-11-11-11-11-11-11-11-11-11-11-11-11-----|
|--------------------------------------------------------|

Bass (2:45 - 2:49)
|---------------------------------------|
|---------------------------------------|
|-8-8-8-8-8-8-8-8-8-8-8-8-8-8-8-8-8-----|
|---------------------------------------|

Pause (2:49 - 3:00)

Bridge
Guitar 2 (3:00 - 3:11)
|-------------------------------------------------|-|
|-------------------------------------------------| |
|-------------------------------------------------| |- Repeat
|-00000-00000-00000-00000-00000-00000-00000-00000-| |-   x2
|-00000-00000-00000-00000-00000-00000-00000-00000-| |
|-00000-00000-00000-00000-00000-00000-00000-00000-|-|
  ..... ..... ..... ..... ..... ..... ..... .....

Bass (3:00 - 3:11)
|-------------------------------------------------|-|
|-------------------------------------------------| |- Repeat
|-------------------------------------------------| |-   x2
|-00000-00000-00000-00000-00000-00000-00000-00000-|-|
  ..... ..... ..... ..... ..... ..... ..... .....

Guitar 1 (3:00 - 3:11)
|--------|
|-6------|
|-5------|
|-5------|
|--------|
|--------|

Guitar 1 (3:11 - 3:15)
|----------------------|
|--6-4-3-------3-4-3---|
|--5-5-5-5-4-5-5-5-5-5-|
|--------5-5-5-------5-|
|----------------------|
|----------------------|

Then
Guitar 2 (3:15 - 3:27)
|-------------------------------------------------|-|
|-------------------------------------------------| |
|-------------------------------------------------| |- Repeat
|-00000-00000-00000-00000-00000-00000-00000-00000-| |-   x2
|-00000-00000-00000-00000-00000-00000-00000-00000-| |
|-00000-00000-00000-00000-00000-00000-00000-00000-|-|
  ..... ..... ..... ..... ..... ..... ..... .....

Bass (3:15 - 3:27)
|-------------------------------------------------|
|-------------------------------------------------|
|-------------------------------------------------|
|-00000-00000-00000-00000-00000-00000-00000-00000-|
  ..... ..... ..... ..... ..... ..... ..... .....

Both Guitars (3:27 - 3:31)
|-----------------------|
|-----------------------|
|-----------------------|
|-6-4-3-1-0/1-3/4\3-1-0-|
|-6-4-3-1-0/1-3/4\3-1-0-|
|-6-4-3-1-0/1-3/4\3-1-0-|

Bass (3:27 - 3:31)
|-----------------------|
|-----------------------|
|-----------------------|
|-6-4-3-1-0/1-3/4\3-1-0-|

Then
Guitar 1 (3:31 - 3:42)
|----------------------------------------------------|-|
|----------------------------------------------------| |
|-7-------------7-----------7-------------7---10---9-| |- Repeat
|---0-7/8-0-7-0---0-2/3\2-0---0-7/8-0-8-0---0----0---| |-   x2
|----------------------------------------------------| |
|----------------------------------------------------|-|

Guitar 2 (3:31 - 3:42)
|-------------------------------------------------|-|
|-------------------------------------------------| |
|-------------------------------------------------| |- Repeat
|-00000-00000-00000-00000-00000-00000-00000-00000-| |-   x2
|-00000-00000-00000-00000-00000-00000-00000-00000-| |
|-00000-00000-00000-00000-00000-00000-00000-00000-|-|
  ..... ..... ..... ..... ..... ..... ..... .....

Bass (3:31 - 3:42)
|-------------------------------------------------|-|
|-------------------------------------------------| |- Repeat
|-------------------------------------------------| |-   x2
|-00000-00000-00000-00000-00000-00000-00000-00000-|-|
  ..... ..... ..... ..... ..... ..... ..... .....

Guitar 1 (3:42 - 3:46)
|-------------------|
|-------------------|
|-------------------|
|-6-4-3-1-0/1-3/4\3-|
|-6-4-3-1-0/1-3/4\3-|
|-6-4-3-1-0/1-3/4\3-|

Chorus
Both Guitars (3:46 - 3:58)
|----------------------------------|-|
|----------------------------------| |
|----------------------------------| |- Repeat
|-1-1\0----1-1\0----1-1\0----1-1\0-| |-   x4
|-1-1\0----1-1\0----1-1\0----1-1\0-| |
|-1-1\0----1-1\0----1-1\0----1-1\0-|-|

Bass (3:46 - 3:58)
|----------------------------------|-|
|----------------------------------| |- Repeat
|----------------------------------| |-   x4
|-1-1\0----1-1\0----1-1\0----1-1\0-|-|

Guitar 1 (3:59 - 4:08)
|--------------------------|-|
|--------------------------| |
|-0h5h7--------------------| |- Repeat
|-------8p7p0-0h5h6-6p5p0--| |-   x4
|--------------------------| |
|--------------------------|-|

Guitar 2 (3:58 - 4:08)
|-----------------------------------------|-|
|-----------------------------------------| |
|-----------------------------------------| |- Repeat
|-6-6-0--1-1\0----1-1\0----1-1\0----1-1\0-| |-   x4
|-6-6-0--1-1\0----1-1\0----1-1\0----1-1\0-| |
|-6-6-0--1-1\0----1-1\0----1-1\0----1-1\0-|-|

Bass (3:58 - 4:08)
|-----------------------------------------|-|
|-----------------------------------------| |- Repeat
|-----------------------------------------| |-   x4
|-6-6-0--1-1\0----1-1\0----1-1\0----1-1\0-|-|

Ending
Guitar 1 (4:08 - 4:10)
|---------------|
|---------------|
|---------------|
|-3/4-4\3/4-1\0-|
|-3/4-4\3/4-1\0-|
|-3/4-4\3/4-1\0-|


Lyrics:
So now you're suffering
the fallacy of what you said
When you uncover the depression
Breathe over the glass you wrote on
Swallow all that you waste your throat on
You wear the make and wave the banner
they made with sin
Revealing every single lie
that you've been breeding within
Wash over the skin you've broken
Think over the tone you spoke in

So lost in your affliction / addiction
The solemn comfort of your grave
If you close your eyes
the light can't take it away

Not I - I won't conform to what I see in you
Not I - I won't surrender what I am
Not I - And even if it was a part of me
Not I - I'll never be that way again

The blind will follow on the path
that you created in vain
No guiding light, but just the shadow
of the dead will remain
Dig open the pain you're hiding
Give your hand to the faith you're fighting
The void you suffer is a curse
forever bleeding inside
Now you embrace the fatal sickness
you should despise
Remember the day you lost that
Where is the shame that will
bring your soul back

So lost in your affliction / addiction
The solemn comfort of your grave
If you close your eyes
the light can't take it away

Not I - I won't conform to what I see in you
Not I - I won't surrender what I am
Not I - And even if it was a part of me
Not I - I'll never be that way again

Reach back behind your pride
And pull the thorn from your burning pain in your
side

Sing me a new song
A broken song of redemption and regret
Sing me a new song
And beg for all the mercy you can get

Not I - I won't conform to what I see in you
Not I - I won't surrender what I am
Not I - And even if it was a part of me
Not I - I'll never be that way again
            

comments powered by Disqus
↑ Back to top | Demon Hunter Tabs for Not I. Lyrics for acoustic guitar and electric guitar. Tablatures and chords are parodies/interpretations of the original songs. You may use it for private study, scholarship, research or language learning purposes only