>
 >
Not I

Not I Bass Tabs

Demon Hunter - Not I chords, tabs, tablatures, lyrics

Guitar lessons | Add/correct | Request | Top 50 tabs Artists:  A B C D E F G H I J K L M N O P Q R S T U V W X Y Z 0-9

Not I Bass Tabs – Demon Hunter

CD, Sheet music, Poster

Do you like Not I? Share with your friends now
Bass TabsBass Tabs v2Bass Tabs v3Tabs
Atrist: Demon Hunter
Tunning: Drop B (B F# B E)

Bass Tab to Demon Hunter's NOT I,
Here yea go folks!

INTRO
(The Intro Is a little confusing but just listen to the song
for the parts and you will get the rythems and parts)
E-----------------------|
B-----------------------|
F#----------------------|
B-6-4-3-1-0-1-3-4-3-1-0-|

Wait for the other guitar to kick in while the lead guitar plays
E--------------------------------------------------------------------|
B--------------------------------------------------------------------|
F#-------------------------------------------------------------------|
B-0-1-2-1---0-1-2-1-0-0-0-0--0-1-2-1-0-1-1-0-1-1-0-1-1-0-1-1-0-1-2-1-|

E---------------------------|
B---------------------------|
F#--------------------------|
B-0-1-1-0-1-0-1-1-1-0-1-2-1-| X3

E---------------------------------|
B---------------------------------|
F#--------------------------------|
B-6-5-5-6-5-5-6-5-5-6-5-5-6-5-6-5-|

VERSE
(Repeat the below 2X)
"So now your suffering the fallacy of.."
E---------------------------|
B---------------------------|
F#--------------------------|
B-0-1-1-0-1-0-1-1-1-0-1-2-1-| X3

E---------------------------------|
B---------------------------------|
F#--------------------------------|
B-6-5-5-6-5-5-6-5-5-6-5-5-6-5-6-5-|

PRE CHORUS
(even if this is the wrong amount of strums you get the idea, just play to the song
to get the rythmetic feel)
"So lost in your affliction..."
E------------------------------------------------------------------------------------|
B------------------------------------------------------------------------------------|
F#-----------------------------------------------------------------------------------|
B-3-3-3-3-3-3-3-3-3-3-3-3-3-3-3-3-3-3-3-3-6-6-6-6-6-6-6-6-6-6-6-6-6-6-6-6-6-6-6-6-1--|

E---------------------------------------------------------------------------------|
B---------------------------------------------------------------------------------|
F#--------------------------------------------------------------------------------|
B-3-3-3-3-3-3-3-3-3-3-3-3-3-3-3-3-3-3-3-3-6-6-6-6-6-6-6-6-6-6-6-6-6-6-6-6-6-6-6-6-|

CHORUS
"Not I, I won't conform to what I see.."
E---------------------------------------------------------------------------|
B---------------------------------------------------------------------------|
F#--------------------------------------------------------------------------|
B-1-1-0-0-0-0-0-0-0-0-0-0-0-0-1-1-0-0-0-0-0-0-0-0-0-0-0-0-1-1-0-0-0-0-0-0-0-|

Continued:
E---------------------------------------|
B---------------------------------------|
F#--------------------------------------|
B-0-0-0-0-0-1-1-0-0-0-0-0-0-0-0-0-0-0-0-|

E---------------------------------------------------------------------------|
B---------------------------------------------------------------------------|
F#--------------------------------------------------------------------------|
B-6-6-0-0-0-0-0-0-0-0-0-0-0-0-6-6-0-0-0-0-0-0-0-0-0-0-0-0-6-6-0-0-0-0-0-0-0-|

Continued:
E-------------------------------|
B-------------------------------|
F#------------------------------|
B-0-0-0-0-0-6-6-0-0-0-0-0-0-0-0-|

INTERLUDE
E--------------------------------------------|
B--------------------------------------------|
F#-------------------------------------------|
B-6-5-5-6-5-5-6-5-5-6-5-5-6-5-6-5----0-1-2-1-|

Play VERSE X2

Play PRE CHORUS

Play CHORUS

BRIDGE
E-----------------------------------|
B-----------------------------------|
F#-8-8-8-8-8-8-8-8-8-8-8-8-8-8-8----|
B-----------------------------------|

While letting ring, Vocals: "Reach back behind your pride.
Pull the thorn from the burning pain.."

E------------------------------------|
B------------------------------------|
F#-----------------------------------|
B-0-0-0-0--0-0-0-0--0-0-0-0--0-0-0-0-| X4

Hold, guitar plays 1 measure

"Sing me a new song..."
E------------------------------------|
B------------------------------------|
F#-----------------------------------|
B-0-0-0-0--0-0-0-0--0-0-0-0--0-0-0-0-| X4

E-----------------------|
B-----------------------|
F#----------------------|
B-6-4-3-1-0-1-3-4-3-1-0-|

E------------------------------------|
B------------------------------------|
F#-----------------------------------|
B-0-0-0-0--0-0-0-0--0-0-0-0--0-0-0-0-| X4

Hold, Guitar plays this measure

Play CHORUS

ENDING
E----------------|
B----------------|
F#---------------|
B-6-5-5-6-5-1-0--|


Song Lyrics:
So now you're suffering the fallacy of what you said
When you uncover the depression from where you've tread
Breathe over the glass you wrote on
Swallow all that you waste your throat on
You wear the mark and wave the banner they made with sin
Revealing every single lie that you've been breeding within
Wash over the skin you've broken
Think over the tone you spoke in

[Pre-chorus:]
So lost in your affliction / addiction
The solemn comfort your grave
If you close your eyes the light can't take it away

[Chorus:]
Not I - I won't conform to what I see in you
Not I - I won't surrender what I am
Not I - And even if it was a part of me
Not I - I'll never be that way again

The blind will follow on the path that you created in vain
No guiding light, but just the shadow of the dead will remain
Dig open the pain you're hiding
Give your hand to the faith you're fighting
The void you suffer is a curse forever bleeding inside
Now you embrace the fatal sickness you should despise
Remember the day you lost that
Where is the shame that will bring your soul back

[Pre-chorus]

[Chorus]

Reach back behind your pride
And pull the thorn from the burning pain in your side

Sing me a new song
A broken song of redemption and regret
Sing me a new song
And beg for all the mercy you can get

[Chorus]





Comments


Popular Demon Hunter tabs & chords
Snap Your Fingers Snap Your Neck Bass Tabs
Beauty Through The Eyes Of A Predator Tabs
Deteriorate Tabs
Means To An End Tabs
My Heartstrings Come Undone 1 Tabs
Our Faces Fall Apart Tabs
Through The Black Tabs
Turn Your Back And Run Tabs
Undying Tabs
Tomorrow Never Comes Ukulele


Song lyrics



↑ Back to top | Tablatures and chords are parodies/interpretations of the original songs. You may use it for private study, scholarship, research or language learning purposes only
© 2014 AZChords.com Contact us | Privacy policy | DMCA | Add/correct tabs | Request tabs | Top 50 tabs