» » »

Fading Away Tabs (ver.2)

Artists:  A B C D E F G H I J K L M N O P Q R S T U V W X Y Z # 

Fading Away Tabs (ver.2)

Demon Hunter
Rating:
3/5 (3 votes)

Hard to play? Try these video lessons and learn fast.
                Not sure if my tab is 100% correct hut it's close enough to sounding rght

songs in drop b ( B F# B E G# C# )

intro/ chorus- guitar 1
C#|---------------------------------------------|
G#| 15--13--16--15--13--15\11--15--13-----------|
E  | x----x----x----x----x----x-x---x----x------|
B  | 12--10--13--12--10--12\8--12--10-----------|
F#|---------------------------------------------|
B | --------------------------------------------|
didn't put the strumming pattern but if u listen to
the song I'll figure it out

intro/ chorus- guitar 2 fill
C#|---------------|
G#|---------------|
E  | 7--5--3--2---|
B  | 5--3--1--0---|
F#| 5--3--1--0----|
B  | 5--3--1--0---|
same here strumming pattern easy to figure out

verse 1
C#|----------------------------|
G#|----------------------------|
E  | 3~--/7~--8\2~--3\0--------|
B  |---------------------------|
F#|----------------------------|
B  |---------------------------|

Verse 2
C#|--------------------------------------------------------------------------|
G#|--------------------------------------------------------------------------|
E  |-------------------------------------------------------------------------|
B  |5-5-5-5-5-5-5-5-8-8-8-8-8-8-8-8-3-3-3-3-3-3-3-3-10-10-10-10-10-10-10-10--|
F#|5-5-5-5-5-5-5-5-8-8-8-8-8-8-8-8-3-3-3-3-3-3-3-3-10-10-10-10-10-10-10-10---|
B  |5-5-5-5-5-5-5-5-8-8-8-8-8-8-8-8-3-3-3-3-3-3-3-3-10-10-10-10-10-10-10-10--|

prechorus
C#|--------------------------------------------------------|
G#|--------------------------------------------------------|
E  |-------------------------------------------------------|
B  |1--3--0------------------------------------------------|     X3
F#|1--3--0--0-3p0-5p0-0-3p0-5p0-0-6p0-5p0------------------|
B  |1--3--0------------------------------------------------|

then strum
C#|----
G#|----
E  |3--5
B  |1--3
F#|1--3
B  |1--3

chorus

verse 1

breakdown
C#|
G#|
E  |
B  |5
F#|5
B  |5
     Pm
palm mute in triplets
figure out the pattern

haven't figured out the fill in

chorus
end wit breakdwon triplets but faster
listento song for pattern

thank u plz rate
            
Hard to play? Try these video lessons and learn fast. | Correct




comments powered by Disqus
↑ Back to top | Tablatures and chords are parodies/interpretations of the original songs. You may use it for private study, scholarship, research or language learning purposes only