» » »

Quien Comparte Tu Silencio Tabs (ver.2)

Artists:  A B C D E F G H I J K L M N O P Q R S T U V W X Y Z # 

Quien Comparte Tu Silencio Tabs (ver.2)

Delux
Rating:
0/5 (0 votes)

Hard to play? Try these video lessons and learn fast.
                bno ps q onda, soi el mismo compa de lacuerda (stolen0ner) esta es mi primera tab tanto 
correcta, al menos se escucha muy bn.
bno pues a peticion de unos compas jaja ai sta:


intro

guitarra 1
e|---------------------------| esta parte la pueden tocar can las cuerdas
B|---------------------------| 4 y 3 en el traste 5 en lugar de los 10
G|---------------------9-----|
D|---10--10--------10---10-10|
A|-10--10---10--10-----------|
E|---------------------------|

e|-----------------------|X2
B|-----------------------|
G|---12-10-9-10-9--------|
D|---------------10-12-10|
A|-----------------------|
E|-----------------------|

Guitarra 2

escuchen bien la cancion en esta parte para q sepan
los compases y cuando hacer los cambios
             G              C     D

e|--------3-----3-----|-----------2-----| X2
B|--------------------|---1----1--3-----|
G|--------------------|-----------2-----|
D|--------------------|---2----2--------|
A|--------2-----2-----|---3----3--------|
E|--------3-----3-----|-----------------|


Verso
guitarra 2
             G              C     D

e|--------3-----3-----|-----------2-----| X2
B|--------------------|---1----1--3-----|
G|--------------------|-----------2-----|
D|--------------------|---2----2--------|
A|--------2-----2-----|---3----3--------|
E|--------3-----3-----|-----------------|
decidiste encontrar otro camino...

guitarra 1
e|------------------------|
B|-13----15----13----15-13|
G|----12----------12------|
D|------------------------|
A|------------------------|
E|------------------------|
he intentado sofocar mis sentimientos

e|---------------|
B|---------------|
G|---12-10-9-10-9|
D|---------------|
A|---------------|
E|---------------|
...y olvidarme de tu cuerpo

Coro
e|---------|
B|---------|
G|---------|
D|---------|
A|-0-0-0-0-|
E|-0-0-0-0-|
   . . . . PM

esto puede ser de dos formas
asi:
      G5         D5       A5         C5
e|------------------------------------------|X4 *el do lo pueden
B|------------------------------------------|cambiar por un sol
G|------------x-x-x-x-------------x-x-x-x---|
D|--x-x-x-x---7-7-7-7---x-x-x-x---5-5-5-5---|
A|--5-5-5-5---5-5-5-5---7-7-7-7---3-3-3-3---|
E|--3-3-3-3-------------5-5-5-5-------------|
  hooooo......hoooooo....

o asi:
   G5    A5     G5              G5   B5    A5
e|----------------------------------------------| X4
B|----------------------------------------------|
G|----------------------------------------------|
D|----------------------------------------------|
A|-5-5-5/7-7-7/5-5-5-5-5-5----5-5-5/9-9-9/7-7-7-|
E|-3-3-3/5-5-5/3-3-3-3-3-3----3-3-3/7-7-7/5-5-5-|

Bridge

e|------------------------------------------------|
B|------------------------------------------------|
G|-----------------------------10-9---------------|
D|-------------------------8h10------10-12-10-9---|
A|-------8-10-10--10-----10-----------------------|
E|-8-8-10-------8---8-8---------------------------|

Verso 2
guitarra 2
              G              C     D

e|--------3-----3-----|-----------2-----| X2
B|--------------------|---1----1--3-----|
G|--------------------|-----------2-----|
D|--------------------|---2----2--------|
A|--------2-----2-----|---3----3--------|
E|--------3-----3-----|-----------------|


guitarra 1
e|-------------------------|---------------------------|
B|-------------------------|--13-----13----15----13----|
G|--12------9h10---------12|----12------12----------12-|
D|-----10-------10----10---|---------------------------|
A|-------------------------|---------------------------|
E|-------------------------|---------------------------|
he perdido....               Sueño y rezo....


precoro
guitarra 1
e|---------------|
B|---------------|
G|---------------|
D|---------------|
A|--0-0---0-0-0-0|
E|--0-0---0-0-0-0|
          . . . . PM
guitarra 2
e|-----------------|
B|-----------------|
G|--12-10-9-10-9---|
D|---------------10|
A|-----------------|
E|-----------------|(entra despues del primer PM)

Coro

asi:
      G5         D5       A5         C5
e|------------------------------------------|X4
B|------------------------------------------|
G|------------x-x-x-x-------------x-x-x-x---|
D|--x-x-x-x---7-7-7-7---x-x-x-x---5-5-5-5---|
A|--5-5-5-5---5-5-5-5---7-7-7-7---3-3-3-3---|
E|--3-3-3-3-------------5-5-5-5-------------|
  hooooo......hoooooo....

o asi:
   G5    A5     G5              G5   B5    A5
e|----------------------------------------------| X4
B|----------------------------------------------|
G|----------------------------------------------|
D|----------------------------------------------|
A|-5-5-5/7-7-7/5-5-5-5-5-5----5-5-5/9-9-9/7-7-7-|
E|-3-3-3/5-5-5/3-3-3-3-3-3----3-3-3/7-7-7/5-5-5-|


Bridge 2
              G5
e|---------------------------------------|
B|---------------------------------------|
G|---------------------------------------|
D|---------------------------------------|
A|--5-5-5-5-5-5-5-5-5-5-5-5-5-5-5-5-5-5-5|
E|--3-3-3-3-3-3-3-3-3-3-3-3-3-3-3-3-3-3-3|
    . . . . . . . . . . . . . . . . . . . PM
Quedate conmigo hasta el final...........llevameeeeeEEEEEE

Coro
asi:
      G5         D5       A5         C5
e|------------------------------------------|X4
B|------------------------------------------|
G|------------x-x-x-x-------------x-x-x-x---|
D|--x-x-x-x---7-7-7-7---x-x-x-x---5-5-5-5---|
A|--5-5-5-5---5-5-5-5---7-7-7-7---3-3-3-3---|
E|--3-3-3-3-------------5-5-5-5-------------|
  hooooo......hoooooo....

o asi:
   G5    A5     G5              G5   B5    A5
e|----------------------------------------------| X4
B|----------------------------------------------|
G|----------------------------------------------|
D|----------------------------------------------|
A|-5-5-5/7-7-7/5-5-5-5-5-5----5-5-5/7-7-7/5-5-5-|
E|-3-3-3/5-5-5/3-3-3-3-3-3----3-3-3/9-9-9/7-7-7-|

*Termina con un C5


------------*----------------------------*----------------------*
------------*----------------------------*----------------------*
------------*----------------------------*----------------------*
            
Hard to play? Try these video lessons and learn fast. | Correct




comments powered by Disqus
↑ Back to top | Tablatures and chords are parodies/interpretations of the original songs. You may use it for private study, scholarship, research or language learning purposes only