» » »

Delux, Abre Los Ojos Tabs (ver.2)

Artists:  A B C D E F G H I J K L M N O P Q R S T U V W X Y Z # 

Abre Los Ojos Tabs (ver.2)

Delux Tabs
 Rating:
4.2/5 (5 votes)
Abre Los Ojos lessons Tabs too difficult? Try these video lessons and learn fast
1
                DElux
Abre los ojos

Intro

Guitarra 1 en PM

e-12--0-0--5--0-0--10--0-0--9--0-0-5--0---7--0----|
b-------------------------------------------------|
g-------------------------------------------------| x 4
d-------------------------------------------------|
a-------------------------------------------------|
E-------------------------------------------------|

Guitarra 2
e-------------------------------------------------|
B-------------------------------------------------|
G------------7~--------------------9~-------------|
D-7~---------7~----------4~--------9~-------------|
A-7~---------5~----------4~--------7~-------------|
E-5~---------------------2~-----------------------|

Guitarra 1

e-12--0-0--5--0-0--10--0-0--9--0-0-5--0---7---0ā€”-|     |--5~-|
B------------------------------------------------|     |-----|
G------------------------------------------------|     |-----|
D------------------------------------------------| x 4 |-----|
A------------------------------------------------|     |-----|
E------------------------------------------------|     |-----|


Guitarra 2 PM muy rapido
e-----------------------------------------------|
B-----------------------------------------------|
G-------------7-------------------9-------------| X2
D-7-----------7----------4--------9-------------|
A-7-----------5----------4--------7-------------|
E-5----------------------2----------------------|

Verso PM muy rapido
Guitarra 2 PM muy rapido

Trato de enterrar...
e-------------------------------------------------|
B-------------------------------------------------|
G-------------7-----------9-----------7-----------|
D--7----------7-----------9-----------7-----------| x2
A--7----------5-----------7-----------5-----------|
E--5----------------------------------------------|

Guitarra 1 en la segunda vez de la guitarra 2 la 1 hace:

Sin recordar el pasado...
eā€”-7h9p7-5~-------4~--------5~--------------------|
B-------------------------------------------------|
G-------------------------------------------------|
D-------------------------------------------------|
A-------------------------------------------------|
E-------------------------------------------------|

Coro
Dos guitarras

Nunca..
e-------------------------------------------------|
B-------------------------------------------------|
G-------7-7-7-7--11-11----9-9-9-9-----------------|
D--7-7--7-7-7-7--11-11----9-9-9-9-----------------| x2
A--7-7--5-5-5-5---9--9----7-7-7-7-----------------|
E--5-5--------------------------------------------|

verso
e---------------------------------------------------|
B---------------------------------------------------|
G-------------7-7-77-7-7-9-9-99-9-9-7-7-77-7--------|
D--7-7-77-7-7-7-7-55-5-7-9-9-99-9-9-7-7-77-7--------| x2
A--7-7-77-7-7-5-5-55-5-5-7-7-77-7-7-5-5-55-5--------|
E--5-5-55-5-5---------------------------------------|
PM . .. . . .. . . .. . . ..

Coro X2 en la segunda vuelta el ultimo acorde va con PM

Puente

Guitarra 2 escuchar PM
e----------------------------------------------------|
B----------------------------------------------------|
G-------7--------------------7-------------999--777--|
D--7----7-----4----2------7--7--4----------999--777--|
A--7----5-----4----2------7--5--4----------777--555--|
E--5----------2----0------5-----2--------------------|
PM.........................................

Guitarra1
e--12---10---9---10---12---10---9---12-12-12--10-10-10-|
B------------------------------------------------------|
G------------------------------------------------------|
D------------------------------------------------------|
A------------------------------------------------------|
E------------------------------------------------------|
Hay como una tercera que hace
G----------------------------9---------|
D----------------------7-9-7---7-9-7---| X3


Solo
Guitarra 1
e------------------------------------|
B------------------------------------|
G-7/9-6~-7-6-------------6-7-9-7-6-7-|
D-----------9-7-6-7--6-7-9-----------|
A------------------------------------|
E------------------------------------|


e---------------------------------------------------|
B--------------7-7-8-7------------------------------|
G-6---6-----7-9-------9-7-6-7-6-9-7-6ā€”--9-7-6-6h7p6~|
D---9----7-9--------------------------9-------------|
A-------9-------------------------------------------|
E---------------------------------------------------|


Guitarra 2 son los acordes
e-----------------------------------------| |----------|
B-----------------------------------------| |----------|
G-------------7-------------------9-------| X2 |-------|
D-7-----------7----------4--------9-------| |--7~------|
A-7-----------5----------4--------7-------| |--7~------|
E-5----------------------2----------------| |--5~------|

Bajo

Me enfurece...
Guitarra 1

e------------------|
B---10--10-10------|
G------------------| X4
D------------------|
A------------------|
E------------------|

Coro X2

Outro PM se van alzando las pisadas para que a veces queden al aire

e-------------------------------------------------|
B-------------------------------------------------|
G-------------7-----------9-----------7-----------|
D--7----------7-----------9-----------7-----------| x2
A--7----------5-----------7-----------5-----------|
E--5----------------------------------------------|

Lo mismo del intro

Y hasta el final

e-------------------|
B-------------------|
G--7-77-7-6-6-------|
D--7-77-7-6-6--7-7--|
A--5-55-5-4-4--7-7--|
E--------------5-5--|
            
Submit corrections

comments powered by Disqus
↑ Back to top | Delux Tabs for Abre Los Ojos. Lyrics for acoustic guitar and electric guitar. 1 Tablatures and chords are parodies/interpretations of the original songs. You may use it for private study, scholarship, research or language learning purposes only