» » »

Deicide, Pentecostal Tabs (ver.1)

Artists:  A B C D E F G H I J K L M N O P Q R S T U V W X Y Z # 

Pentecostal Tabs (ver.1)

Deicide Tabs
 Rating:
4/5 (4 votes)
Pentecostal lessons Tabs too difficult? Try these video lessons and learn fast
                Key:
* = palm-mute        " = trem. pick {worth 4 notes}
! = artificial harm. / = slide
x = muted string
S = staccato

Notes:
The riffs here can be a bit challenging, but other than that, the arrangement is
pretty straight-forward.  The first bit of the intro sounds correct but I may
be a bit off.  Same goes for the muted strings in the bridge.  There may be a
part of the verse riff that gtr. 1 plays differently but if you listen it's
barely audible.  Send any comments or suggestions and please rate appropriatly.
-=-=-=-=-=-=-=-=-=-=-=-=-=-=-=-=-=-=-=-=-=-=-=-=-=-=-=-=-=-=-=-=-=-=-=-=-=-=-=-=
Intro:
Fill 1 x 1
eb|----------------|
Bb|-6543-----------|
Gb|-----6543-------|
Db|---------7654---|
Ab|-------------87-|
Eb|----------------|
            ******
eb|---------------------------------------------------------------x5|
Bb|--------------------------------------------------6543-----------|
Gb|---------------------6666----7777----8888----6666-----6543-------|
Db|-6666----7777------------5555----5555----5555-------------7654---|
Ab|-----5555----55555555-----------------------------------------87-|
Eb|-----------------------------------------------------------------|
        ****    ********                                     ******

Verse:
eb|-------------------------------------------------------------------------x3|
Bb|------------------------------------------------------------------------!--|
Gb|-------------7777777--------77778888------------777777----7~-----8~-----6~-|
Db|-6666---------------6666------------6666--------------5555---5555---5555---|
Ab|-----55555555-----------5555------------55555555---------------------------|
Eb|---------------------------------------------------------------------------|

Bridge:
eb|---------------------------------------x5|
Bb|-----------------------------------------|
Gb|-S-----------S-----------S---------------|
Db|-x-----------x-----------x-----------5\4-|
Ab|-x--xxxx-4\3-x--xxxx-4\3-x--xxxx-4\3-3\2-|
Eb|-0--0000-2\1-x--0000-2\1-x--0000-2\1-----|
    *  ****     *  ****     *  ****

Chorus[Play the last note of the 7th ending staccato]:
eb|---------------------------------|-1,2,3---|-4,6-end--|-5,7 end--|
Bb|---------------------------------|-end-----|----------|-7--------|
Gb|---------------------------------|---------|-5--------|----5-----|
Db|---------------------------------|-----5\4-|----4-----|------4---|
Ab|-2-------4\3-2-------4\3-2-------|-4\3-3\2-|------3---|--------3-|
Eb|-0--0000-2\1-0--0000-2\1-0--0000-|-2\1-----|--------2-|----------|
       ****        ****        ****

Repeat Intro (w/o Fill 1), Verse, Bridge, and Chorus

Solo Rythym (Gtr. 2):
eb|----------------------------------------------|
Bb|----------------------------------------------|
Gb|----------------------------------------------|
Db|-99991010101013131313141414141313131310101010-|
Ab|-77778-8-8-8-1111111112121212111111118-8-8-8--|
Eb|----------------------------------------------|

eb|----------------------------------------------------------------x4|
Bb|------------------------------------------------------------------|
Gb|------------------------------------------------------------------|
Db|-9---------------------------------9/10-9-------9/10-13"14"13"10"-|
Ab|-7-------6/7-6-------5/6-5-2-------7/8--7-------7/8--11"12"11"8-"-|
Eb|----0000-4/5-4--0000-3/4-3-0--0000---------0000-------------------|
       ****        ****          ****         ****
eb|--------------------------------------------------------------------|
Bb|-----------------------------------------------------------7--------|
Gb|---------------------------S-----------S-----------S----------5---S-|
Db|-9-------------------------x-----------x-----------x------------4-x-|
Ab|-7-------6/7-6-------5/6-5-x-------4\3-x--xxxx-4\3-x--xxxx--------x-|
Eb|----0000-4/5-4--0000-3/4-3-0--0000-2\1-x--0000-2\1-x--0000--------0-|
       ****        ****       *  ****     *  ****     *  ****        *

End (except for the piano part, please don't request a transcritpton of that!)
            
Submit corrections

comments powered by Disqus
↑ Back to top | Deicide Tabs for Pentecostal. Lyrics for acoustic guitar and electric guitar. Tablatures and chords are parodies/interpretations of the original songs. You may use it for private study, scholarship, research or language learning purposes only