» » »

Nose Bleed Bass tabs (ver.1)

Artists:  A B C D E F G H I J K L M N O P Q R S T U V W X Y Z # 

Nose Bleed Bass tabs (ver.1)

Deftones
Rating:
0/5 (0 votes)

Hard to play? Try these video lessons and learn fast.
                Deftones - "Nose Bleed"  


4 String, Standard Turning 

Main Riff: 

G|---------------------------|| 
D|---------------------------|| 
A|--------4-------4----------|| 
E|-5-4--5---5-4-5---4-2-2-2--||   

Verse Riff: 

G|-----------|| 
D|-----------|| 
A|-----------|| 
E|-3-3--3-3--||  

Part Before Bridge starts: 

G|-------------------|| 
D|-------------------|| 
A|-------------------|| 
E|-3-2-2~~~~~~~~~~~~~||  

Bridge: 

Part A: 
G|------------------------------|| 
D|------------------------------|| 
A|-3-3-3------------------------|| 
E|-------1-1-1-0--0-0-0-0-0--0--||    

Part B: 
G|---------------------------------|| 
D|---------------------------------|| 
A|-3-3-3-------2-2-2-2-2-2-2-2-2-2-|| 
E|-------1-1-1---------------------||   

Part C: 
G|----------------------|------------------------||Play this 
D|----------------------|------------------------||part veery
A|----------------------|------------------------||softly 
E|-3--3-3--3--3-3--3--4-|-3--3-3--3--3-3--3-4-1--||   

G|----|| 
D|----|| 
A|----|| 
E|-3--||
            
Hard to play? Try these video lessons and learn fast. | Correct




comments powered by Disqus
↑ Back to top | Tablatures and chords are parodies/interpretations of the original songs. You may use it for private study, scholarship, research or language learning purposes only