» » »

Knife Prty Tabs (ver.2)

Artists:  A B C D E F G H I J K L M N O P Q R S T U V W X Y Z # 

Knife Prty Tabs (ver.2)

Deftones
Rating:
0/5 (0 votes)

Hard to play? Try these video lessons and learn fast.
                

Here is the full CORRECT version of this song. No song on White Pony
can be played in D tuning.

This song is tuned to C G C F A D.

------------------------------------------------------------------------------
-5-5-5-5-5-5-5-5-5-5-5-5-5-5--------------------------------------------------
-5-5-5-5-5-5-5-5-5-5-5-5-5-5/9-9-9-9--9-9-9-9-10-10-9-9-----------------------
-3-3-3-3-3-3-3-3-3-3-3-3-3-3/9-9-9-9--9-9-9-9-10-10-9-9-----------------------
-3-3-3-3-3-3-3-3-3-3-3-3-3-3/7-7-7-7--7-7-7-7-7--7--7-7-----------------------
-----------------------------7-7-7-7--7-7-7-7-7--7--7-7-----------------------
 Intro. Clean. I did not space the timing, but its not hard to get.           

------------------------------------------------------------------------------
-5--5-5---5--5-5--------------------------------------------------------------
-5--5-5---5--5-5/9-9-9--9-9-10-10-9-9-----------------------------------------
-3--3-3---3--3-3/9-9-9--9-9-10-10-9-9-----------------------------------------
-3--3-3---3--3-3/7-7-7--7-7-7--7--7-7-----------------------------------------
-3--3-3---3--3-3/7-7-7--7-7-7--7--7-7-----------------------------------------
 Full distortion. Main verse riff.                                            

------------------------------------------------------------------------------
------------------------------------------------------------------------------
-----------------------10-10-9-9-9-9-9-9-9------------------------------------
-8-8-8-8-8-8-8-8-8-8-8-x--x--x-x-x-x-x-x-x------------------------------------
-8-8-8-8-8-8-8-8-8-8-8-8--8--7-7-7-7-7-7-7------------------------------------
-8-8-8-8-8-8-8-8-8-8-8--------------------------------------------------------
 Chorus "Come get your knife, come get your knife"                            

------------------------------------------------------------------------------
------------------------------------------------------------------------------
-10---------------------------------------------------------------------------
-8----------------------------------------------------------------------------
-x----------------------------------------------------------------------------
-0----------------------------------------------------------------------------
 End chorus riff with this - "Now kiss me..."                                 

------------------------------------------------------------------------------
------------------------------------------------------------------------------
-10---------------------------------------------------------------------------
-8----10----------------------------------------------------------------------
-x----7-----------------------------------------------------------------------
-0----7-----------------------------------------------------------------------
 Part where Chino screams. Played clean. Repeat, then go back into chorus     
            
Hard to play? Try these video lessons and learn fast. | Correct




comments powered by Disqus
↑ Back to top | Tablatures and chords are parodies/interpretations of the original songs. You may use it for private study, scholarship, research or language learning purposes only