» » »

Def Leppard, Pour Some Sugar On Me Bass tabs (ver.1)

Artists:  A B C D E F G H I J K L M N O P Q R S T U V W X Y Z # 

Pour Some Sugar On Me Bass tabs (ver.1)

Def Leppard Tabs
 Rating:
4/5 (4 votes)
Pour Some Sugar On Me lessons Tabs too difficult? Try these video lessons and learn fast
1
                "Pour Some Sugar On Me"
Def Leppard

standard tuning

intro
E|--------------------------------------------|
A|--------------------------------------------|
D|----4-4--------4-4--------4-4--------4-4----|
G|--------------------------------------------|


verse
E|-------------------|
A|-------------------|
D|----4-4-------4----|
G|---------6-6-------|


"Take a bottle..."
E|----------------------------------------------------------------|
A|----------------------------------------------------------------|
D|------4--2-2--2-------4--2-2--2------2--0-0--0------0--0-2--2---|
G|--2-2-------------2-2------------0-0------------0-0-------------|


"Pour some sugar on me..."
E|--------------------------------------------------------------------|
A|--------------------------------------------------------------------|
D|------0-0--2-2--2-2--------0-0--2-2--2-2--------0-0--2-2--2-2-----4-|
G|-0-0------------------0-0------------------0-0----------------------|


(during solo)
E|--------------------------|
A|--------------------------|
D|--------------------------|
G|----7----------------7----|
            
Submit corrections

comments powered by Disqus
↑ Back to top | Def Leppard Bass for Pour Some Sugar On Me. Lyrics for acoustic guitar and electric guitar. 1 Tablatures and chords are parodies/interpretations of the original songs. You may use it for private study, scholarship, research or language learning purposes only