>
 >
Rat Bat Blue 2

Rat Bat Blue 2 Bass Tabs

Deep Purple - Rat Bat Blue 2 chords, tabs, tablatures, lyrics

Guitar lessons | Add/correct | Request | Top 50 tabs Artists:  A B C D E F G H I J K L M N O P Q R S T U V W X Y Z 0-9

Rat Bat Blue 2 Bass Tabs – Deep Purple

CD, Sheet music, Poster

Do you like Rat Bat Blue 2? Share with your friends now
Bass TabsBass Tabs v2
Rat Bat Blue
(Blackmore/Gillan/Glover/Lord/Paice)
Gtr I (E A D G) - 'Bass'

  Q=96
 4/4
  Gtr I
  W          W          W          W
|----------|----------|----------|------|
|----------|----------|----------|------|
|----------|----------|----------|------|
|----------|----------|----------|------|


  W          E S S S S S S S E S S S S S   E S S S S S S S E. +Q
|----------|-----------------------------|-------------------------|
|----------|---2---2-0---2---0-------0-2-|---2---2-0---2---0--(0)--|
|----------|-----------------------------|-------------------------|
|----------|-0---------0-------0---0-----|-0---------0-------------|


  E S S S S S S S E S S S S S   E S S S S S S S E. +Q
|-----------------------------|-------------------------|
|---2---2-0---2---0-------0-2-|---2---2-0---2---0--(0)--|
|-----------------------------|-------------------------|
|-0---------0-------0---0-----|-0---------0-------------|


  E S S S S S S S E S S S S S   E S S S S S S S E. +Q
|-----------------------------|-------------------------|
|---2---2-0---2---0-------0-2-|---2---2-0---2---0--(0)--|
|-----------------------------|-------------------------|
|-0---------0-------0---0-----|-0---------0-------------|


  E S S S S S S S E S S S S S   E S S S S S S S E. +Q
|-----------------------------|-------------------------|
|---2---2-0---2---0-------0-2-|---2---2-0---2---0--(0)--|
|-----------------------------|-------------------------|
|-0---------0-------0---0-----|-0---------0-------------|


  S S S S S S S S S S S S S S S S   S S S S S S S S S S S S S S S S
|---------------------------------|---------------------------------|
|---------------------------------|---------------------------0-1-2-|
|-0-0-0-0-0-0-0-0-0-0-0-0-0-0-0-0-|-0-0-0-0-0-0-0-0-0-0-0-0-0-------|
|---------------------------------|---------------------------------|


  S S S S S S S S S S S S S S E   S S S S S S S S S S S S S S S S
|-5-----------------------------|---------------------------------|
|-------------------------------|---------------------------------|
|---7-5-3-5-3-0-3-5-3-5-6-5-3-0-|-0-0-0-0-0-0-0-0-0-0-0-0-0-0-0-0-|
|-------------------------------|---------------------------------|


  S S S S S S S S S S S S S S S S   S S S S S S S S S S S S S S E
|---------------------------------|-5-----------------------------|
|---------------------------------|-------------------------------|
|-0-0-0-0-0-0-0-0-0-0-0-0-0-5-6-7-|---7-5-3-5-3-0-3-5-3-5-6-5-3-0-|
|---------------------------------|-------------------------------|


  S S S S E S S S E S E S S   S E S E S S E E E E   S E S E S S S E S S S S S
|---------------------------|---------------------|----------------------------|
|---------------------------|---------------------|----------------------------|
|-5-5---5-5---3-5-5-5-5---3-|-5-5-5-5---3-5-------|-------------0-0-0-0-5-6-7--|
|-----------5-----------5---|---------5-----2-3-4-|-5-5-5-5-0-3----------------|


  S S S S S S S S S S S S S S E   H    Q.   E   Q  E. S S E S +S  S S S
|-5-----------------------------|-------------|--------------------------|
|-------------------------------|-2----0------|---------------------0-2--|
|---7-5-3-5-3-0-3-5-3-5-6-5-3-0-|-----------3-|-0--0--0---0-0-(0)-2------|
|-------------------------------|-------------|--------------------------|


  E S S S S S S S E S S S S S   E S S S S S S S E. +Q
|-----------------------------|-------------------------|
|---2---2-0---2---0-------0-2-|---2---2-0---2---0--(0)--|
|-----------------------------|-------------------------|
|-0---------0-------0---0-----|-0---------0-------------|


  E S S S S S S S E S S S S S   E S S S S S S S E. +Q
|-----------------------------|-------------------------|
|---2---2-0---2---0-------0-2-|---2---2-0---2---0--(0)--|
|-----------------------------|-------------------------|
|-0---------0-------0---0-----|-0---------0-------------|


  E S S S S S S S E S S S S S   E S S S S S S S E. +Q
|-----------------------------|-------------------------|
|---2---2-0---2---0-------0-2-|---2---2-0---2---0--(0)--|
|-----------------------------|-------------------------|
|-0---------0-------0---0-----|-0---------0-------------|


  E S S S S S S S E S S S S S   E S S S S S S S E. +Q
|-----------------------------|-------------------------|
|---2---2-0---2---0-------0-2-|---2---2-0---2---0--(0)--|
|-----------------------------|-------------------------|
|-0---------0-------0---0-----|-0---------0-------------|


  S S S S S S S S S S S S S S S S   S S S S S S S S S S S S S S S S
|---------------------------------|---------------------------------|
|---------------------------------|---------------------------0-1-2-|
|-0-0-0-0-0-0-0-0-0-0-0-0-0-0-0-0-|-0-0-0-0-0-0-0-0-0-0-0-0-0-------|
|---------------------------------|---------------------------------|


  S S S S S S S S S S S S S S E   S S S S S S S S S S S S S S S S
|-5-----------------------------|---------------------------------|
|-------------------------------|---------------------------------|
|---7-5-3-5-3-0-3-5-3-5-6-5-3-0-|-0-0-0-0-0-0-0-0-0-0-0-0-0-0-0-0-|
|-------------------------------|---------------------------------|


  S S S S S S S S S S S S S S S S   S S S S S S S S S S S S S S E
|---------------------------------|-5-----------------------------|
|---------------------------------|-------------------------------|
|-0-0-0-0-0-0-0-0-0-0-0-0-0-5-6-7-|---7-5-3-5-3-0-3-5-3-5-6-5-3-0-|
|---------------------------------|-------------------------------|


  S S S S E S S S E S E S S   S E S E S S E E E E   S E S E S S S E S S S S S
|---------------------------|---------------------|----------------------------|
|---------------------------|---------------------|----------------------------|
|-5-5---5-5---3-5-5-5-5---3-|-5-5-5-5---3-5-------|-------------0-0-0-0-5-6-7--|
|-----------5-----------5---|---------5-----2-3-4-|-5-5-5-5-0-3----------------|


  S S S S S S S S S S S S S S E   H    Q.   E   Q  E. S S E S +S  S S S
|-5-----------------------------|-------------|--------------------------|
|-------------------------------|-2----0------|---------------------0-2--|
|---7-5-3-5-3-0-3-5-3-5-6-5-3-0-|-----------3-|-0--0--0---0-0-(0)-2------|
|-------------------------------|-------------|--------------------------|


  E S S S S S S S E S S S S S   E S S S S S S S E. +Q
|-----------------------------|-------------------------|
|---2---2-0---2---0-------0-2-|---2---2-0---2---0--(0)--|
|-----------------------------|-------------------------|
|-0---------0-------0---0-----|-0---------0-------------|


  E S S S S S S S E S S S S S   E S S S S S S S E. +Q
|-----------------------------|-------------------------|
|---2---2-0---2---0-------0-2-|---2---2-0---2---0--(0)--|
|-----------------------------|-------------------------|
|-0---------0-------0---0-----|-0---------0-------------|


  E S S S S S S S E S S S S S   E S S S S S S S E. +Q
|-----------------------------|-------------------------|
|---2---2-0---2---0-------0-2-|---2---2-0---2---0--(0)--|
|-----------------------------|-------------------------|
|-0---------0-------0---0-----|-0---------0-------------|


  E S S S S S S S E S S S S S   E S S S S S S S E. +S  S S S
|-----------------------------|------------------------------|
|---2---2-0---2---0-------0-2-|---2---2-0---2---0--(0)-------|
|-----------------------------|----------------------------0-|
|-0---------0-------0---0-----|-0---------0------------0-3---|


  S E S S S E S S E S S S S   S E S S S E S S E S S S S
|---------------------------|----------------------------|
|---------------------------|----------------------------|
|-3-0-----0---3-0---------0-|-3-0-----0---3-0---------0--|
|-------3-------------0-3---|-------3-------------0-3----|


  S E S S S E S S E S S S S   S E S S S E S S E S S S S
|---------------------------|----------------------------|
|---------------------------|----------------------------|
|-3-0-----0---3-0---------0-|-3-0-----0---3-0---------0--|
|-------3-------------0-3---|-------3-------------0-3----|


  S E S S S E S S E S S S S   S E S S S E S S E S S S S
|---------------------------|----------------------------|
|---------------------------|----------------------------|
|-3-0-----0---3-0---------0-|-3-0-----0---3-0---------0--|
|-------3-------------0-3---|-------3-------------0-3----|


  S E S S S E S S E S S S S   S E S S S E S S E S S S S
|---------------------------|----------------------------|
|---------------------------|----------------------------|
|-3-0-----0---3-0---------0-|-3-0-----0---3-0---------0--|
|-------3-------------0-3---|-------3-------------0-3----|


  S S S S S S S S S S S S S S S S   S S S S S S S S S S S S S S S S
|---------------------------------|---------------------------------|
|---------------------------------|---------------------------------|
|-3-0-0-0---0-0-0-3-0-0-0-0-----0-|-3-0-0-0---0-0-0-3-0-0-0-0-----0-|
|---------3-----------------0-3---|---------3-----------------0-3---|


  S S S S S S S S S S S S S S S S   S S S S S S S S S S S S S S S S
|---------------------------------|---------------------------------|
|---------------------------------|---------------------------------|
|-3-0-0-0---0-0-0-3-0-0-0-0-----0-|-3-0-0-0---0-0-0-3-0-0-0-0-----0-|
|---------3-----------------0-3---|---------3-----------------0-3---|


  S S S S S S S S S S S S S S S S   S S S S S S S S S S S S S S S S
|---------------------------------|---------------------------------|
|---------------------------------|---------------------------------|
|-3-0-0-0---0-0-0-3-0-0-0-0-----0-|-3-0-0-0---0-0-0-3-0-0-0-0-----0-|
|---------3-----------------0-3---|---------3-----------------0-3---|


  S S S S S S S S S S S S S S S S   S S S S S S S S S S S S S S S S
|---------------------------------|---------------------------------|
|---------------------------------|---------------------------------|
|-3-0-0-0---0-0-0-3-0-0-0-0-----0-|-3-0-0-0---0-0-0-3-0-0-0-0-----0-|
|---------3-----------------0-3---|---------3-----------------0-3---|


  S S S S S S S S S S S S S S S S   S S S S S S S S S S S S S S S S
|---------------------------------|---------------------------------|
|---------------------------------|---------------------------------|
|-3-0-0-0---0-0-0-3-0-0-0-0-----0-|-3-0-0-0---0-0-0-3-0-0-0-0-----0-|
|---------3-----------------0-3---|---------3-----------------0-3---|


  S S S S S S S S S S S S S S S S   S S S S S S S S S S S S S S S S
|---------------------------------|---------------------------------|
|---------------------------------|---------------------------------|
|-3-0-0-0---0-0-0-3-0-0-0-0-----0-|-3-0-0-0---0-0-0-3-0-0-0-0-----0-|
|---------3-----------------0-3---|---------3-----------------0-3---|


  S S S S S S S S S S S S S S S S   S S S S S S S S S S S S S S S S
|---------------------------------|---------------------------------|
|---------------------------------|---------------------------------|
|-3-0-0-0---0-0-0-3-0-0-0-0-----0-|-3-0-0-0---0-0-0-3-0-0-0-0-----0-|
|---------3-----------------0-3---|---------3-----------------0-3---|


  S S S S S S S S S S S S S S S S   S S S S S S S S S S S S S S S S
|---------------------------------|---------------------------------|
|---------------------------------|---------------------------------|
|-3-0-0-0---0-0-0-3-0-0-0-0-----0-|-3-0-0-0---0-0-0-3-0-0-0-0-----0-|
|---------3-----------------0-3---|---------3-----------------0-3---|


  S S S S S S S S S S S S S S S S   S S S S S S S S S S S S S S S S
|---------------------------------|---------------------------------|
|---------------------------------|---------------------------------|
|-3-0-0-0---0-0-0-3-0-0-0-0-----0-|-3-0-0-0---0-0-0-3-0-0-0-0-----0-|
|---------3-----------------0-3---|---------3-----------------0-3---|


  S S S S S S S S S S S S S S S S   S S S S S S S S S S S S S S S S
|---------------------------------|---------------------------------|
|---------------------------------|---------------------------------|
|-3-0-0-0---0-0-0-3-0-0-0-0-----0-|-3-0-0-0---0-0-0-3-0-0-0-0-----0-|
|---------3-----------------0-3---|---------3-----------------0-3---|


  S S S S S S S S S S S S S S S S   S S S S S S S S S S S S S S S S
|---------------------------------|---------------------------------|
|---------------------------------|---------------------------------|
|-3-0-0-0---0-0-0-3-0-0-0-0-----0-|-3-0-0-0---0-0-0-3-0-0-0-0-----0-|
|---------3-----------------0-3---|---------3-----------------0-3---|


  S S S S S S S S S S S S S S S S   S S S S S S S S S S S S S S S S
|---------------------------------|---------------------------------|
|---------------------------------|---------------------------------|
|-3-0-0-0---0-0-0-3-0-0-0-0-----0-|-3-0-0-0---0-0-0-3-0-0-0-0-----0-|
|---------3-----------------0-3---|---------3-----------------0-3---|


  S S S S S S S S S S S S S S S S
|---------------------------------|
|---------------------------------|
|-3-0-0-0---0-0-0-3-0-0-0-0-----0-|
|---------3-----------------0-3---|


  E E +S  E. E. S +E  S S   E E +S   E.  E.  S  +E   S  S
|-2-----------------------|--------------------------------|
|---------------------5-6-|-7------------------------------|
|---4-(4)-5--6--7-(7)-----|-------------------------10-11--|
|-------------------------|---9-(9)-10--11--12-(12)--------|


  E E +S  E. E. S +E  S S   E E +S  E. E. S +E  S S
|-------------------------|-------------------------|
|-7-------------------5-6-|-7-------------------5-6-|
|---4-(4)-5--6--7-(7)-----|---4-(4)-5--6--7-(7)-----|
|-------------------------|-------------------------|


   S S S S S S S S S S S S S S S S
|-14-2-6-2-2-2-2-2-2-2-2-2-2-2-2-2--|
|------7----------------------------|
|-12--------------------------------|
|-----------------------------------|


  S S S S S S S S S S S S S S S S   H    +Q.   E   W
|-2-2-2-2-2-2-2-2-2-2-2-2-2-2-2-2-|-2----(2)-----|------|
|---------------------------------|--------------|------|
|---------------------------------|--------------|------|
|---------------------------------|--------------|------|


  E S S S S S S S E S S S S S   E S S S S S S S E. +Q
|-----------------------------|-------------------------|
|---2---2-0---2---0-------0-2-|---2---2-0---2---0--(0)--|
|-----------------------------|-------------------------|
|-0---------0-------0---0-----|-0---------0-------------|


  E S S S S S S S E S S S S S   E S S S S S S S E. +Q
|-----------------------------|-------------------------|
|---2---2-0---2---0-------0-2-|---2---2-0---2---0--(0)--|
|-----------------------------|-------------------------|
|-0---------0-------0---0-----|-0---------0-------------|


  E S S S S S S S E S S S S S   E S S S S S S S E. +Q
|-----------------------------|-------------------------|
|---2---2-0---2---0-------0-2-|---2---2-0---2---0--(0)--|
|-----------------------------|-------------------------|
|-0---------0-------0---0-----|-0---------0-------------|


  E S S S S S S S E S S S S S   E S S S S S S S E. +Q
|-----------------------------|-------------------------|
|---2---2-0---2---0-------0-2-|---2---2-0---2---0--(0)--|
|-----------------------------|-------------------------|
|-0---------0-------0---0-----|-0---------0-------------|


  S S S S S S S S S S S S S S S S   S S S S S S S S S S S S S S S S
|---------------------------------|---------------------------------|
|---------------------------------|---------------------------0-1-2-|
|-0-0-0-0-0-0-0-0-0-0-0-0-0-0-0-0-|-0-0-0-0-0-0-0-0-0-0-0-0-0-------|
|---------------------------------|---------------------------------|


  S S S S S S S S S S S S S S E   S S S S S S S S S S S S S S S S
|-5-----------------------------|---------------------------------|
|---2-0---0---------------------|---------------------------------|
|-------3---3---3-5-3-5-6-5-3-0-|-0-0-0-0-0-0-0-0-0-0-0-0-0-0-0-0-|
|-------------5-----------------|---------------------------------|


  S S S S S S S S S S S S S S S S   S S S S S S S S S S S S S S E
|---------------------------------|-5-----------------------------|
|---------------------------------|-------------------------------|
|-0-0-0-0-0-0-0-0-0-0-0-0-0-5-6-7-|---7-5-3-5-3-0-3-5-3-5-6-5-3-0-|
|---------------------------------|-------------------------------|


  S S S S E S S S E S E S S   S E S E S S E E E E   S E S E S S S E S S S S S
|---------------------------|--------------------|-------------------------|
|---------------------------|--------------------|-------------------------|
|-5-5---5-5---3-5-5-5-5---3-|5-5-5-5---3-5-------|------------0-0-0-0-5-6-7|
|-----------5-----------5---|--------5-----2-3-4-|5-5-5-5-0-3--------------|


  S S S S S S S S S S S S S S E   H    Q.   E   Q  E. S S E S +S  S S S
|-5-----------------------------|-------------|--------------------------|
|-------------------------------|-2----0------|---------------------0-2--|
|---7-5-3-5-3-0-3-5-3-5-6-5-3-0-|-----------3-|-0--0--0---0-0-(0)-2------|
|-------------------------------|-------------|--------------------------|


  E S S S S S S S E S S S S S   E S S S S S S S E. +Q
|-----------------------------|-------------------------|
|---2---2-0---2---0-------0-2-|---2---2-0---2---0--(0)--|
|-----------------------------|-------------------------|
|-0---------0-------0---0-----|-0---------0-------------|


  E S S S S S S S E S S S S S   E S S S S S S S E. +Q
|-----------------------------|-------------------------|
|---2---2-0---2---0-------0-2-|---2---2-0---2---0--(0)--|
|-----------------------------|-------------------------|
|-0---------0-------0---0-----|-0---------0-------------|


  E S S S S S S S E S S S S S   E S S S S S S S E. +Q
|-----------------------------|-------------------------|
|---2---2-0---2---0-------0-2-|---2---2-0---2---0--(0)--|
|-----------------------------|-------------------------|
|-0---------0-------0---0-----|-0---------0-------------|


  E S S S S S S S E S S S S S   E S S S S S S S E. +Q
|-----------------------------|-------------------------|
|---2---2-0---2---0-------0-2-|---2---2-0---2---0--(0)--|
|-----------------------------|-------------------------|
|-0---------0-------0---0-----|-0---------0-------------|


  E S S S S S S S E S S S S S   E S S S S S S S E. +Q
|-----------------------------|-------------------------|
|---2---2-0---2---0-------0-2-|---2---2-0---2---0--(0)--|
|-----------------------------|-------------------------|
|-0---------0-------0---0-----|-0---------0-------------|


  E S S S S S S S E S S S S S   E S S S S S S S E. +Q
|-----------------------------|-------------------------|
|---2---2-0---2---0-------0-2-|---2---2-0---2---0--(0)--|
|-----------------------------|-------------------------|
|-0---------0-------0---0-----|-0---------0-------------|


  E S S S S S S S E S S S S S   E S S S S S S S E. +Q
|-----------------------------|-------------------------|
|---2---2-0---2---0-------0-2-|---2---2-0---2---0--(0)--|
|-----------------------------|-------------------------|
|-0---------0-------0---0-----|-0---------0-------------|


  E S S S S S S S E S S S S S   E S S S S S S S E. +Q
|-----------------------------|-------------------------|
|---2---2-0---2---0-------0-2-|---2---2-0---2---0--(0)--|
|-----------------------------|-------------------------|
|-0---------0-------0---0-----|-0---------0-------------|


  E S S S S S S S E S S S S S   E S S S S S S S E. +Q
|-----------------------------|-------------------------*|
|---2---2-0---2---0-------0-2-|---2---2-0---2---0--(0)--*|
|-----------------------------|-------------------------*|
|-0---------0-------0---0-----|-0---------0-------------*|


Duration Legend
---------------
W - whole; H - half; Q - quarter; E - 8th; S - 16th; T - 32nd; X - 64th; a - acciaccatura
+ - note tied to previous; . - note dotted; .. - note double dotted
Uncapitalized letters represent notes that are staccato (1/2 duration)
Irregular groupings are notated above the duration line
Duration letters will always appear directly above the note/fret number it represents the
duration for.  Duration letters with no fret number below them represent rests.  Multi-
bar rests are notated in the form Wxn, where n is the number of bars to rest for.  Low
melody durations appear below the staff

Tablature Legend
----------------
 h   - hammer-on
 p   - pull-off
 b   - bend
 pb  - pre-bend
 r   - bend release (if no number after the r, then release immediately)
 /\  - slide into or out of (from/to "nowhere")
 s   - legato slide
 S   - shift slide
  - natural harmonic
[n]  - artificial harmonic
n(n) - tapped harmonic
 ~   - vibrato
 tr  - trill
 T   - tap
 TP  - trem. picking
 PM  - palm muting
\n/  - tremolo bar dip; n = amount to dip
 \n  - tremolo bar down
 n/  - tremolo bar up
/n\  - tremolo bar inverted dip
 =   - hold bend; also acts as connecting device for hammers/pulls
 <>  - volume swell (louder/softer)
 x   - on rhythm slash represents muted slash
 o   - on rhythm slash represents single note slash

Misc Legend
-----------
 |  - bar
||  - double bar
||o - repeat start
o|| - repeat end
*|  - double bar (ending)
 :  - bar (freetime)
 $  - Segno
 &  - Coda
Tempo markers -  = BPM(8/16=s8/s16), where s8 = swing 8ths, s16 = swing 16ths





Comments


Popular Deep Purple tabs & chords
Burn Bass Tabs
Haunted Bass Tabs
You Keep On Moving Bass Tabs
The Gypsy Chords
Why Didnt Rosemary Chords
Contact Lost Tabs
Fireball 1 Tabs
Into The Fire 1 Tabs
Squished Bananas Dave&Cammey Tabs
Woman From Tokyo Ukulele


Song lyrics



↑ Back to top | Tablatures and chords are parodies/interpretations of the original songs. You may use it for private study, scholarship, research or language learning purposes only
© 2014 AZChords.com Contact us | Privacy policy | DMCA | Add/correct tabs | Request tabs | Top 50 tabs