>
 >
Stop

Stop Guitar Tabs

Death Angel - Stop chords, tabs, tablatures, lyrics

Guitar lessons | Add/correct | Request | Top 50 tabs Artists:  A B C D E F G H I J K L M N O P Q R S T U V W X Y Z 0-9

Stop Guitar Tabs – Death Angel

CD, Sheet music, Poster

Do you like Stop? Share with your friends now
Tabs
Band:  Death Angel

Copyright (c)  (Geffen) (1990)
Version 1.0 - (27/03/05)



.  - palm mute           /  - slide up to
\  - slide down to       ~  - vibrato
h  - hammer on           b  - Bend
p  - pull off            Suffixes for bend
t  - tap                 f  - full bend    h - half bend
ph - pinched harmonic    q  - quarter bend t - tap bend
*  - see comment         ^  - Hold bend    r release bend
x  - Stuccatto           ~  - vibrato bend
,  - slight palm mute    () - ghost note, sustained note
"  - tremolo note        <> - Trill

Tunning E A D G B E
 

 Intro

   [-PM-] [-PM-]  [-PM-]  [-PM-]
E---------------------------------|
B---------------------------------|
G---------------------------------|
D---------------------------------|
A-2-----5-2-----7-2-----5-2-----8-|
E-0-000-3-0-000-5-0-000-3-0-000-6-| Rpt

  Guitar 1
    [-PM-]  [-PM-]  [-PM-]  [-PM-]
E[---------------------------------|
B[---------------------------------|
G[---------------------------------|
D[---------------------------------|
A[-2-----5-2-----7-2-----5-2-----8-|
E[-0-000-3-0-000-5-0-000-3-0-000-6-| 
 [
 [Guitar 2
E[---------------------------------|
B[---------------------------------|
G[---------------------------------|
D[---------------------------------|
A[-------5-------7-------5-------8-|
E[-------3-------5-------3-------6-| Rpt

 Main Riff

   [-PM-]   [-PM-]  [-PM-]  [-PM-]
E---------------------------------|
B---------------------------------|
G---------------------------------|
D---------------------------------|
A-5-------7-------5-------8\------|
E-3-0-000-5-0-000-3-0-000-6\0-000-| Rpt 4 X

   [-PM-] [-PM-] [-PM-] [-PM-]
E-----------------------------|
B-----------------------------|
G-----------------------------|
D-----------------------------|
A-5------7------5------8------|
E-3-0000-5-0000-3-0000-6-0000-| Rpt 3 X

  Guitar 1
    [-PM-]  [--------PM-------]
E[-----------------------------|
B[-----------------------------|
G[-----------------------------|
D[----------8-7-5--------------|
A[-5------7-------87532-5320---|
E[-3-0000-5-----------------32-| 
 [
 [Guitar 2
 [  [-PM-] [-PM-] [-PM-] [-PM-]
E[-----------------------------|
B[-----------------------------|
G[-----------------------------|
D[-----------------------------|
A[-5------7------5------8------|
E[-3-0000-5-0000-3-0000-6-0000-|

  Guitar 1
    [-PM-]   [-PM-]  [-PM-]  [-PM-]
E[---------------------------------|
B[---------------------------------|
G[---------------------------------|
D[---------------------------------|
A[-5-------7-------5-------8-------|
E[-3-0-000-5-0-000-3-0-000-6-0-000-|
 [
 [Guitar 2
 [  
E[---------------------------------|
B[---------------------------------|
G[---------------------------------|
D[---------------------------------|
A[-5-------7-------5-------8-------|
E[-3-------5-------3-------6-------| 

  Guitar 1
    [-PM-] [-PM-] [-PM-] 
E[-----------------------------|
B[-----------------------------|
G[-----------------------------|
D[-----------------------------|
A[-5------7------5------8------|
E[-3-0000-5-0000-3-0000-6------|
 [
 [Guitar 2
E[-----------------------------|
B[-----------------------------|
G[-----------------------------|
D[-----------------------------|
A[-5------7------5------8------|
E[-3------5------3------6------|

 Fill

E------------------|
B------------------|
G------------------|
D-12-12-12\8-8-8-8-|
A-10-10-10\6-6-6-6-|
E------------------|

 Verse Riff
 Riff A
  [----PM----]   [----PM----]     [----PM----]
E-------------------------------------------------------------------|
B-------------------------------------------------------------------|
G-------------------------------------------------------------------|
D---------------------------------------------------8-8-8-8-8-8-8-8-|
A-2----2-2----6-6-2----2-2----6-6-2----2-2----6-6---6-6-6-6-6-6-6-6-|
E-0-00-0-0-00-4-4-0-00-0-0-00-4-4-0-00-0-0-00-4-4-0-----------------|


 Guitar 1
   [---PM---]  [---PM---]    [--PM--]        [PM]   PM  
E[----------------------------------------------------------|
B[----------------------------------------------------------|
G[----------------------------------------------------------|
D[------------------------------------------8-----8---8-8---|
A[-2--------6-6-2--------6-6-2--------6-6---6-----6---6-6---|
E[-00000000-4-4-00000000-4-4-00000000-4-4-0---0000-00-------|
 [
 [Guitar 2
 [[---PM---]   [---PM---]    [---PM--]
E[----------------------------------------------------------|
B[----------------------------------------------------------|
G[----------------------------------------------------------|
D[------------------------------------------8-8-8-8-8-8-8-8-|
A[-2--------6-6-2--------6-6-2--------6-6---6-6-6-6-6-6-6-6-|
E[-00000000-4-4-00000000-4-4-00000000-4-4-0-----------------|


  Guitar 1
  [----PM----]    [----PM----]     [----PM----]
E[-------------------------------------------------------------------|
B[-------------------------------------------------------------------|
G[-------------------------------------------------------------------|
D[---------------------------------------------------8-8-8-8-8-8-8-8-|
A[-2----2-2----6-6-2----2-2----6-6-2----2-2----6-6---6-6-6-6-6-6-6-6-|
E[-0-00-0-0-00-4-4-0-00-0-0-00-4-4-0-00-0-0-00-4-4-0-----------------|
 [
 [Guitar 2
 [[----PM----]    [----PM----]     [----PM----]
E[-------------------------------------------------------------------|
B[-------------------------------------------------------------------|
G[---------------------------------------------------8-8-8-8-8-8-8-8-|
D[-------------------------------------------------------------------|
A[-2----2-2----6-6-2----2-2----6-6-2----2-2----6-6-------------------|
E[-0-00-0-0-00-4-4-0-00-0-0-00-4-4-0-00-0-0-00-4-4-0-----------------|
                                                       Rpt 3 X

 [----PM----]   [----PM----]     [----PM----]       [------PM-----]
E-------------------------------------------------------------------|
B-------------------------------------------------------------------|
G-------------------------------------------------------------------|
D---------------------------------------------------8-8-8-8-8-8-8-8-|
A-2----2-2----6-6-2----2-2----6-6-2----2-2----6-6---6-6-6-6-6-6-6-6-|
E-0-00-0-0-00-4-4-0-00-0-0-00-4-4-0-00-0-0-00-4-4-0-----------------|

 Riff B
  [PM]   [PM]     [PM]   
E----------------------------------|
B----------------------------------|
G----------------------------------|
D----------------------------------|
A-2-2-5---2-2-7---2-2-5---2-8---8--|
E-0-0-3p0-0-0-5p0-0-0-3p0-0-6-x-6--| Rpt 3 X

  [PM]    [PM]    [PM]
E----------------------------------|
B----------------------------------|
G----------------------------------|
D----------------------------------|
A-2-2-5---2-2-7---2-2-5---2-8---8--|
E-0-0-3---0-0-5---0-0-3---0-6-x-6--| 

 [PM-]     [PM-]   [PM-]
E-------------------------------------|
B-------------------------------------|
G-------------------------------------|
D-------------------------------------|
A-2----5\--2----7\--2----5\--2-8---8--|
E-0-00-3\--0-00-5\--0-00-3\--0-6-x-6--| Rpt 4 X

 Rpt Fill
 Rpt Verse


 
 Lead fills in 2nd Verse

E-11-11-11-11-11-11--|
B-14b14b14b14b14b14b-|
G--------------------|
D--------------------|
A--------------------|
E--------------------|

E--------------------|
B-9\7---7/9\7--------|
G-8\6-8-6/8\6--------|
D-----8--------------|
A--------------------|
E--------------------|
  h   h   h   h   h
E-9p6-9p6-9p6-9p6-9p6-|
B---------------------|
G---------------------|
D---------------------|
A---------------------|
E---------------------|

 Interlude

E-----------------------|
B-----------------------|
G-----------------------|
D-4------2--2--2--------|
A-2--5-2-0--0--0--------|
E----3-0----------------| Rpt 3 X
 
 Backing for guitar solo
    [PM]                                  [---------PM--------]
E---------------------------------------------------------------|
B---------------------------------------------------------------|
G---------------------------------------------------------------|
D-4------2-------(2)---------4------2---------------------------|
A-2--5-2-0-------(0)---------2------0-----0-00-2-22-3-33-3-2----|
E----3-0-----------------------------------------------------3--|

    [PM]     [---------PM--------]
E-----------------------------------|
B-----------------------------------|
G-----------------------------------|
D-4------2--------------------------|
A-2--5-2-0----0-00-2-22-3-33-3-2----|
E----3-0-------------------------3--| Rpt 3 X

             [---------PM--------]
E-----------------------------------|
B-----------------------------------|
G-----------------------------------|
D-4------2--------------------------|
A-2------0----0-00-2-22-3-33-3-2----|
E--------------------------------3--| Rpt 4 X

 After guitar solo

E-------------------------------------------------------------------|
B-------------------------------------------------------------------|
G-------------------------------------------------------------------|
D-4-----------7----------------2--------------5---------------------|
A-2-----------5----------------0--------------3---------------------|
E-------------------------------------------------------------------|
 Additional guitar enters 2nd time.
  B           D                 A    
E-----------------------------------------------|
B-----------------------------------------8-10--|
G---------------7-5-4-5p4---------6-7-9\7-------|
D---1-2-4-2-1-------------7-5-4/7---------------|
A-2-----------5---------------------------------|
E-----------------------------------------------|

E-------------|
B-------------|
G-------------|
D-------------|
A-2--2--2--2--|
E-0--0--0--0--|
 
   [-----PM-----]   [-----PM-----]  [-----PM-----] [-----PM-----]
E-------------------------------------------------------------------|
B-------------------------------------------------------------------|
G-------------------------------------------------------------------|
D-4-4-4-4-4-4-4-4-7-7-7-7-7-7-7-7-2-2-2-2-2-2-2-2-5-5-5-5-5-5-5-5---|
A-2-2-2-2-2-2-2-2-5-5-5-5-5-5-5-5-0-0-0-0-0-0-0-0-3-3-3-3-3-3-3-3---|
E-------------------------------------------------------------------|
 Additional guitar
E--------------------------------------------------------8----------|
B--------------------------------------------------8---8---8--------|
G----------------------------------------------------5--------------|
D-------------------------------------------------------------------|
A-------------------------------------------------------------------|
E-------------------------------------------------------------------|

   [-----PM-----]   [-----PM-----]  [-----PM-----] 
E-------------------------------------------------------------------|
B-------------------------------------------------------------------|
G-------------------------------------------------------------------|
D-4-4-4-4-4-4-4-4-7-7-7-7-7-7-7-7-2-2-2-2-2-2-2-2----------2---7----|
A-2-2-2-2-2-2-2-2-5-5-5-5-5-5-5-5-0-0-0-0-0-0-0-0--2---2---0---5----|
E--------------------------------------------------0---0------------|

     [PM]    [PM]     
E-------------------------------------|
B-------------------------------------|
G-------------------------------------|
D-4-4---4-4-4---4-4-4--7-7-------9-9--|
A-2-2-222-2-2-222-2-2--5-5--7-7--7-7--|
E---------------------------5-5-------|

     [PM]    [PM]
E-------------------------------------|
B-------------------------------------|
G-------------------------------------|
D-4-4---4-4-4---4-4-4--9-9-------7-7--|
A-2-2-222-2-2-222-2-2--7-7--7-7--5-5--|
E---------------------------5-5-------| Rpt

 Rpt the above 2 riffs 2 X for guitar solo backing.

     [PM]    [PM]                    [PM]    [PM]
E-----------------------------------------------------------------|
B-----------------------------------------------------------------|
G---------------------7--2--9--2----------------------------------|
D-2-2---2-2-2---2-2-2-5--0--7--0---2-2---2-2-2---2-2-2-5-----3----|
A-0-0-000-0-0-000-0-0--------------0-0-000-0-0-000-0-0-3--5--1----|
E---------------------------------------------------------3-------|

 [--------------------PM--------------------]    
E----------------------------------------------|
B----------------------------------------------|
G----------------------------------------------|
D----------------------------------------------|
A-2-2-2-2-2-2-2-2-5-5-5-5-5-5-5-5-222-2-222-2--|
E-0-0-0-0-0-0-0-0-3-3-3-3-3-3-3-3-000-0-000-0--|

  Guitar 1
E[---------------6-106----|
B[--------------6------6--|
G[------------------------|
D[------------8-----------|
A[-2-22-2-2---------------|
E[------------------------|
 [
 [Guitar 2
E[------------------------|
B[------------------------|
G[-----------------7------|
D[-4-44-4-4------8---8----|
A[-2-22-2-2-----8------8--|
E[------------6-----------|

  Guitar 1
    [-PM-]  [-PM-]  [-PM-]  [-PM-]
E[---------------------------------|
B[---------------------------------|
G[---------------------------------|
D[---------------------------------|
A[-2-----5-2-----7-2-----5-2-----8-|
E[-0-000-3-0-000-5-0-000-3-0-000-6-| 
 [
 [Guitar 2
E[---------------------------------|
B[---------------------------------|
G[---------------------------------|
D[---------------------------------|
A[-------5-------7-------5-------8-|
E[-------3-------5-------3-------6-| Rpt

  Guitar 1
    [-PM-] [-PM-]  [-PM-]  [-PM-]
E[-----------------------------------------------------------------|
B[-----------------------------------------------------------------|
G[-----------------------------------------------------------------|
D[-----------------------------------------------------------------|
A[-2-----5-2-----7-2-----5-2-----8-2-----5-2-----7-2-----5-2-----8-|
E[-0-000-3-0-000-5-0-000-3-0-000-6-0-000-3-0-000-5-0-000-3-0-000-6-|
 [
 [Guitar 2   
E[-----------------------------------------------------------------|
B[-----------------------------------------------------------------|
G[-----------------------------------------------------------------|
D[-----------------------------------------------------------------|
A[-2-------2-------2-------------8---7---5-------7-------5-------8-|
E[-0-------0-------0-------------6---5---3-------5-------3-------6-|


  Guitar 1
    [-PM-]  [-PM-]  [-PM-]  [-PM]
E[------------------------------------------|
B[------------------------------------------|
G[-----------------------------------<7><5>-|
D[---------------------------------<7>------|
A[-2-----5-2-----7-2-----5-2-----<7>--------|
E[-0-000-3-0-000-5-0-000-3-0-000------------| 
 [
 [Guitar 2                               ~~~
E[------------------------------------------|
B[---------------------------------------8--|
G[------------------------------------7-----|
D[----------------------------------7-------|
A[-------5-------7-------5--------7---------|
E[-------3-------5-------3------------------| 

 
   [-PM-]  [-PM-]  [-PM-]  [-PM-]
E-----------------------------------|
B-----------------------------------|
G-----------------------------------|
D-----------------------------------|
A-2-----5-2-----7-2-----5-2-----8\7-|
E-0-000-3-0-000-5-0-000-3-0-000-6\5-| Rpt

   [-PM-]  [-PM-]  [-PM-]  [-PM-]
E---------------------------------|
B---------------------------------|
G---------------------------------|
D---------------------------------|
A-2-----5-2-----7-2-----5-2-----8-|
E-0-035-3-0-035-5-0-035-3-0-035-6-|

   [-PM-]  [-PM-]  [-PM-]  [-PM-]
E---------------------------------|
B---------------------------------|
G---------------------------------|
D---------------------------------|
A-2-----5-2-----7-2-----5-2-----8-|
E-0-000-3-0-000-5-0-000-3-0-000-6-|

   [-PM-]  [-PM-]  [-PM-]  [-PM-]
E-----------------------------------|
B-----------------------------------|
G-----------------------------------|
D-----------------------------------|
A-2-----5-2-----7-2-----5-2-----8-8-|
E-0-000-3-0-000-5-0-000-3-0-000-6-6-|Rpt 4 X
 

E-----|
B-----|
G-----|
D-----|
A-8-8-|
E-6-6-|


 [-PM-] [-PM-] [-PM-] [-PM-]
E--------------------------------|
B--------------------------------|
G--------------------------------|
D--------------------------------|
A-2----5-2----7-2----5-2----8-8--|
E-0000-3-0000-5-0000-3-0000-6-6--| Rpt 4 X


END





Comments


Popular Death Angel tabs & chords
Dethroned Tabs
Final Death Tabs
Five Steps Of Freedom Tabs
Organization Tabs
Road Mutants Tabs
Sonic Beatdown Tabs
Steal The Crown Intro Tabs
Thrashers Tabs
Thrown To The Wolves Intro Tabs
Ultra Violence Intro Tabs


Song lyrics



↑ Back to top | Tablatures and chords are parodies/interpretations of the original songs. You may use it for private study, scholarship, research or language learning purposes only
© 2014 AZChords.com Contact us | Privacy policy | DMCA | Add/correct tabs | Request tabs | Top 50 tabs