» » »

Steal The Crown Tabs (ver.1)

Artists:  A B C D E F G H I J K L M N O P Q R S T U V W X Y Z # 

Steal The Crown Tabs (ver.1)

Death Angel
Rating:
0/5 (0 votes)

Hard to play? Try these video lessons and learn fast.
                (Intro)
Intro to   Death Angel's Steal the Crown of the Killing Season album
Hello everyone, this is my second tab. I just love the sound of this song so i tabbed 
out the intro to begin with, will probably work on the rest





Just at the end of the first riff played by bass, you kick in with this
e|-----------------------------|
B|-----------------------------|
G|-----------------------------|
D|-----------------------------|
A|----5---5------7---7---------|
E|----3---3------5---5------0--|x1

_____________________________________________________________________________

e|--------------------------------------------------------------------------|
B|--------------------------------------------------------------------------|
G|--------------------------------------------------------------------------|
D|--------------------------------------------------------------------------|
A|-2---2------------------5~---------2---2------------------5~--------------|
E|-0---0--------5h---7----------0----0---0--------5h---7--------------------|

e|--------------------------------------------------------------------------|
B|--------------------------------------------------------------------------|
G|--------------------------------------------------------------------------|
D|--------------------------------------------------------------------------|
A|-2---2------------------5~---------5---5------7---7-----------------------|
E|-0---0--------5h---7----------0----3---3------5---5-----------------------|

_____________________________________________________________________________
X2
            
Hard to play? Try these video lessons and learn fast. | Correct




comments powered by Disqus
↑ Back to top | Tablatures and chords are parodies/interpretations of the original songs. You may use it for private study, scholarship, research or language learning purposes only