» » »

Death Angel, Road Mutants Tabs (ver.1)

Artists:  A B C D E F G H I J K L M N O P Q R S T U V W X Y Z # 

Road Mutants Tabs (ver.1)

Death Angel Tabs
 Rating:
4/5 (4 votes)
Road Mutants lessons Tabs too difficult? Try these video lessons and learn fast
                Notation Key
~: vibrato
^: bend
.: palm mute
r: release
t: trill
p: pull-off
h: hammer-on
x: ghost note
/: slide up
\: slide down

----------------------------------------------------------------------------

Fig. 1 x4
e|---------------------------------|
B|---------------------------------|
G|---------------------------------|
D|------------------------------6--|
A|------5---------6-------5-----6--|
E|--3-3---3-6-3-3---3-5-3---3-3-4--|

Fig. 2 x4
e|-----------------------------------|
B|-----------------------------------|
G|-----------------------------------|
D|------------------------------7-9--|
A|------5---7-----8---7---8-----5-7--|
E|--0-0-3-0-5-0-0-6-0-5-0-6-0-0------|
    . .   .   . .   .   .   . .

            TIME- 0:25

Riff 1A x4
    Guitar 1
  e|--------------------------------|
  B|--------------------------------|
  G|--------------------------------|
  D|--------------------------------|
  A|------2-------3-------4-----1~--|
  E|--0-0---1-0-0---2-0-0---3-0-----|

    Guitar 2
  e|-------------------------------|
  B|-------------------------------|
  G|----------------------------9--|
  D|----------------------------8--|
  A|------2-------3-------4-----7--|
  E|--0-0---1-0-0---2-0-0---3-0----|


Riff 1B x1
e|---------------------------|
B|---------------------------|
G|---------------------------|
D|---------------------------|
A|------2-------3-------4----|
E|--0-0---1-0-0---2-0-0---3--|

            TIME- 0:38

Fill 1A x1
e|-----|-----------|
B|-----|-----------|
G|--9--|-----------|
D|--8--|------7-9--|
A|--7--|------5-7--|
E|--0--|--0-0------|

Fig. 2 x1
e|-----------------------------------|
B|-----------------------------------|
G|-----------------------------------|
D|------------------------------7-9--|
A|------5---7-----8---7---8-----5-7--|
E|--0-0-3-0-5-0-0-6-0-5-0-6-0-0------|
    . .   .   . .   .   .   . .

Fill 1A x1
e|-----|-----------|
B|-----|-----------|
G|--9--|-----------|
D|--8--|------7-9--|
A|--7--|------5-7--|
E|--0--|--0-0------|

Fig. 2 x2
e|-----------------------------------|
B|-----------------------------------|
G|-----------------------------------|
D|------------------------------7-9--|
A|------5---7-----8---7---8-----5-7--|
E|--0-0-3-0-5-0-0-6-0-5-0-6-0-0------|
    . .   .   . .   .   .   . .

Fill 1B x1
e|-----|---------|-----------|
B|-----|---------|-----------|
G|--9--|--9------|-----------|
D|--8--|------8--|------7-9--|
A|--7--|---------|------5-7--|
E|--0--|---------|--0-0------|

Fig. 2 x2
e|-----------------------------------|
B|-----------------------------------|
G|-----------------------------------|
D|------------------------------7-9--|
A|------5---7-----8---7---8-----5-7--|
E|--0-0-3-0-5-0-0-6-0-5-0-6-0-0------|
    . .   .   . .   .   .   . .

            TIME- 1:05

Fill 2 x1
e|-----------------------------------|
B|-----------------------------------|
G|--9-9------------------------------|
D|----------8-8-----9-9--------------|
A|------7-7-------------8-8-7-7-5-5--|
E|--------------7-7------------------|

Riff 2A x4
e|---------------------------------------|
B|---------------------------------------|
G|---------------------------------------|
D|----------------------------------7-6--|
A|----------------------------------7-6--|
E|--3333-3333-3333-3333-3333-3333-3-5-4--|

Riff 2B x1
e|-----------------------------|
B|-----------------------------|
G|-----------------------------|
D|------------------------7-6--|
A|----------------------2-7-6--|
E|--3333-3333-3333-3333-0-5-4--|

            TIME- 1:21

Fig. 3 x2
e|-----------------------------------|----------------------------------|
B|-----------------------------------|----------------------------------|
G|-----------------------------------|----------------------------------|
D|------------------------9--8--8-8--|--------------------7-------------|
A|----7---8---7---8---7---7--6--6-6--|----7---8---7---8---5-8-8-8--8-8--|
E|--0-5-0-6-0-5-0-6-0-5-0------------|--0-5-0-6-0-5-0-6-0---6-6-6--6-6--|
    .   .   .   .   .   .               .   .   .   .   .

Riff 3 x2
e|--------------------------------------------|
B|--------------------------------------------|
G|--------------------------------------------|
D|--------------------------------------------|
A|--------------------------------------------|
E|--000-3-000-2-000-1-000-2-000-3-000-2h3-2~--|

e|-------------------------------------------|
B|-------------------------------------------|
G|-------------------------------------------|
D|----------------------------------------9--|
A|----------------------------------------7--|
E|--000-3-000-2-000-1-000-2-000-3-000-2h3-0--|

            TIME- 1:44-1:46 (let the last chord ring)

Fig. 1 x3
e|---------------------------------|
B|---------------------------------|
G|---------------------------------|
D|------------------------------6--|
A|------5---------6-------5-----6--|
E|--3-3---3-6-3-3---3-5-3---3-3-4--|

Fig. 2 x3
e|-----------------------------------|
B|-----------------------------------|
G|-----------------------------------|
D|------------------------------7-9--|
A|------5---7-----8---7---8-----5-7--|
E|--0-0-3-0-5-0-0-6-0-5-0-6-0-0------|
    . .   .   . .   .   .   . .

            TIME- 2:03

Fill 2 x1
e|-----------------------------------|
B|-----------------------------------|
G|--9-9------------------------------|
D|----------8-8-----9-9--------------|
A|------7-7-------------8-8-7-7-5-5--|
E|--------------7-7------------------|

Fig. 4 x2
e|-----------------|---------------|-----------------|---------------|
B|-----------------|---------------|-----------------|---------------|
G|-----------------|---------------|-----------------|---------------|
D|-----------------|--7----9-8--8--|-----------------|--7------------|
A|--7--7---10-7-7--|--5-7--7-6--6--|--7--7---10-7-7--|--5-7--9-8--8--|
E|--5--5----8-5-5--|----5----------|--5--5----8-5-5--|----5--7-6--6--|

            TIME- 2:23

Riff 1A x2
    Guitar 1
  e|--------------------------------|
  B|--------------------------------|
  G|--------------------------------|
  D|--------------------------------|
  A|------2-------3-------4-----1~--|
  E|--0-0---1-0-0---2-0-0---3-0-----|

    Guitar 2
  e|-------------------------------|
  B|-------------------------------|
  G|----------------------------9--|
  D|----------------------------8--|
  A|------2-------3-------4-----7--|
  E|--0-0---1-0-0---2-0-0---3-0----|


Riff 1B x1
e|---------------------------|
B|---------------------------|
G|---------------------------|
D|---------------------------|
A|------2-------3-------4----|
E|--0-0---1-0-0---2-0-0---3--|

            TIME- 2:31

Fill 1A x1
e|-----|-----------|
B|-----|-----------|
G|--9--|-----------|
D|--8--|------7-9--|
A|--7--|------5-7--|
E|--0--|--0-0------|

Fig. 2 x1
e|-----------------------------------|
B|-----------------------------------|
G|-----------------------------------|
D|------------------------------7-9--|
A|------5---7-----8---7---8-----5-7--|
E|--0-0-3-0-5-0-0-6-0-5-0-6-0-0------|
    . .   .   . .   .   .   . .

Fill 1A x1
e|-----|-----------|
B|-----|-----------|
G|--9--|-----------|
D|--8--|------7-9--|
A|--7--|------5-7--|
E|--0--|--0-0------|

Fig. 2 x2
e|-----------------------------------|
B|-----------------------------------|
G|-----------------------------------|
D|------------------------------7-9--|
A|------5---7-----8---7---8-----5-7--|
E|--0-0-3-0-5-0-0-6-0-5-0-6-0-0------|
    . .   .   . .   .   .   . .

Fill 1B x1
e|-----|---------|-----------|
B|-----|---------|-----------|
G|--9--|--9------|-----------|
D|--8--|------8--|------7-9--|
A|--7--|---------|------5-7--|
E|--0--|---------|--0-0------|

Fig. 2 x2
e|-----------------------------------|
B|-----------------------------------|
G|-----------------------------------|
D|------------------------------7-9--|
A|------5---7-----8---7---8-----5-7--|
E|--0-0-3-0-5-0-0-6-0-5-0-6-0-0------|
    . .   .   . .   .   .   . .

            TIME- 2:58

Fill 2 x1
e|-----------------------------------|
B|-----------------------------------|
G|--9-9------------------------------|
D|----------8-8-----9-9--------------|
A|------7-7-------------8-8-7-7-5-5--|
E|--------------7-7------------------|

Riff 2A x4
e|---------------------------------------|
B|---------------------------------------|
G|---------------------------------------|
D|----------------------------------7-6--|
A|----------------------------------7-6--|
E|--3333-3333-3333-3333-3333-3333-3-5-4--|

Riff 2B x1
e|-----------------------------|
B|-----------------------------|
G|-----------------------------|
D|------------------------7-6--|
A|----------------------2-5-6--|
E|--3333-3333-3333-3333-0-5-4--|

            TIME- 3:13

Fig. 3 x2
e|-----------------------------------|----------------------------------|
B|-----------------------------------|----------------------------------|
G|-----------------------------------|----------------------------------|
D|------------------------9--8--8-8--|--------------------7-------------|
A|----7---8---7---8---7---7--6--6-6--|----7---8---7---8---5-8-8-8--8-8--|
E|--0-5-0-6-0-5-0-6-0-5-0------------|--0-5-0-6-0-5-0-6-0---6-6-6--6-6--|
    .   .   .   .   .   .               .   .   .   .   .

Fill 3 x1
    Guitar 1                          Guitar 2
  e|-----------------|              e|-----------------|
  B|-----------------|              B|------------6t8--|
  G|-----------------|              G|--7t9--5t7-------|
  D|------------3t5--|              D|-----------------|
  A|--5t7--3t5-------|              A|-----------------|
  E|-----------------|              E|-----------------|

            TIME- 3:27

Riff 4 x5
e|-----------------------|-------------------|
B|-----------------------|-------------------|
G|-----------------------|-------------------|
D|-----------------------|-------------------|
A|------------------7-6--|--------------7-6--|
E|--0-0-0-000-000-0-5-4--|--0-0-000-000-5-4--|

End x1
e|---------|
B|---------|
G|---------|
D|----7-6--|
A|--2-7-6--|
E|--0-5-4--|

            TIME- 3:41
            
Submit corrections

comments powered by Disqus
↑ Back to top | Death Angel Tabs for Road Mutants. Lyrics for acoustic guitar and electric guitar. Tablatures and chords are parodies/interpretations of the original songs. You may use it for private study, scholarship, research or language learning purposes only