>
 >
Final Death

Final Death Guitar Tabs

Death Angel - Final Death chords, tabs, tablatures, lyrics

Guitar lessons | Add/correct | Request | Top 50 tabs Artists:  A B C D E F G H I J K L M N O P Q R S T U V W X Y Z 0-9

Final Death Guitar Tabs – Death Angel

CD, Sheet music, Poster

Do you like Final Death? Share with your friends now
Tabs
Band:  Death Angel

Copyright (c)  (Under One Flag) (1987)
Version 1.0 - (24/05/05)



.  - palm mute           /  - slide up to
\  - slide down to       ~  - vibrato
h  - hammer on           b  - Bend
p  - pull off            Suffixes for bend
t  - tap                 f  - full bend    h - half bend
ph - pinched harmonic    q  - quarter bend t - tap bend
*  - see comment         ^  - Hold bend    r release bend
x  - Stuccatto           ~  - vibrato bend
,  - slight palm mute    () - ghost note, sustained note
"  - tremolo note        <> - Trill

Tunning E A D G B E
 

 Intro

  Guitar 1
  [PM]  PM     [PM]  PM 
E[--------------------------|
B[--------------------------|
G[--------------------------|
D[--------------------------|
A[-----5---5/7------5---7/6-|
E[-0-0-3p0-3/5--0-0-3p0-5/6-|
 [Guitar 2
E[--------------------------|
B[--------------------------|
G[--------------------------|
D[--------------------------|
A[-2-2----------2-2---------|
E[-0-0----------0-0---------| Rpt 3 X

  Guitar 1
  [PM]  PM   ph[PM]  PM   ph 
E[--------------------------|
B[--------------------------|
G[--------------------------|
D[-----------7------------8-|
A[-----5---5--------5---7---|
E[-0-0-3p0-3----0-0-3p0-5---|
 [Guitar 2
E[--------------------------|
B[--------------------------|
G[--------------------------|
D[--------------------------|
A[-2-2----------2-2---------|
E[-0-0----------0-0---------|


  [PM]  PM     [PM]  PM 
E[--------------------------|
B[--------------------------|
G[--------------------------|
D[--------------------------|
A[-----5---5/7------5---7/6-|
E[-0-0-3p0-3/5--0-0-3p0-5/6-| Rpt 4 X

 Main Riff

  [-PM-]       [-PM-]      [-PM-]      PM
E------------------------------------------------|
B------------------------------------------------|
G------------------------------------------------|
D-------12-\11-------7-/9--------12-\11----------|
A-------10-\9--------5-/7--------10-\9----8\7-\--|
E-0-0-0--------0-0-0-------0-0-0--------0-6\5-\--|


  Guitar 1
   [-PM-]       [-PM-]      [-PM-]      
E[---------------------------------------------------|
B[---------------------------------------------------|
G[---------------------------------------------------|
D[-------12-\11-------7-/9--------12-\11----9/101010-|
A[-------10-\9--------5-/7--------10-\9-----7/8-8-8--|
E[-0-0-0--------0-0-0-------0-0-0--------------------|
 [Guitar 2
E[---------------------------------------------------|
B[---------------------------------------------------|
G[---------------------------------------------------|
D[------------------------------------------9/101010-|
A[------------------------------------------7/8-8-8--|
E[---------------------------------------------------|

  [-PM-]       [-PM-]      [-PM-]      PM
E------------------------------------------------|
B------------------------------------------------|
G------------------------------------------------|
D-------12-\11-------7-/9--------12-\11----------|
A-------10-\9--------5-/7--------10-\9----8\7-\--|
E-0-0-0--------0-0-0-------0-0-0--------0-6\5-\--|

  [-PM-]       [-PM-]      [-PM-]      
E---------------------------------------------------|
B---------------------------------------------------|
G---------------------------------------------------|
D-------12-\11-------7-/9--------12-\11----9/101010-|
A-------10-\9--------5-/7--------10-\9-----7/8-8-8--|
E-0-0-0--------0-0-0-------0-0-0--------------------|

  Rpt above riffs 3 X
  Rpt Intro Riff 3 X

E-----|
B-----|
G-----|
D-----|
A-2---|
E-0---|


 Verse
  [---------------------------------------------] ~~~~~~~~
E---------------------------------------------------------|
B---------------------------------------------------------|
G---------------------------------------------------------|
D---------------------------------------------------------|
A-2-2-2-2-2-2-2-2-2-2-2-2-2-2-2-2-2-2-2-2-2-2-2-2---------|
E-0-0-0-0-0-0-0-0-0-0-0-0-0-0-0-0-0-0-0-0-0-0-0-0-3-------|

 Additional guitar
E---------------------------------------------------------|
B---------------------------------------------------------|
G--------------------------<12>---------------------------|
D-----------------------<12>------------------------------|
A--------------------<12>---------------------------------|
E---------------------------------------------------------|

  [---------------------------------------------] ~~~~~~~~
E---------------------------------------------------------|
B---------------------------------------------------------|
G---------------------------------------------------------|
D-------------------------------------------------8-------|
A-2-2-2-2-2-2-2-2-2-2-2-2-2-2-2-2-2-2-2-2-2-2-2-2---------|
E-0-0-0-0-0-0-0-0-0-0-0-0-0-0-0-0-0-0-0-0-0-0-0-0---------|

 Additional guitar
E------------------------<5>------------------<5>---------|
B----------------------<5>------------<5>-------<5>-------|
G--------------------<7>----------------<5><7>----<5>-----|
D---------------------------------------------------------|
A---------------------------------------------------------|
E---------------------------------------------------------|

 Rpt Main Riff 2 X
 Rpt Intro Riff 4 X
 
 Alternative Verse Riff
  Guitar 1
   [---------------------------------------------] 
E[---------------------------------------------------------|
B[---------------------------------------------------------|
G[---------------------------------------------------------|
D[---------------------------------------------------------|
A[-2-2-2-2-2-2-2-2-2-2-2-2-2-2-2-2-2-2-2-2-2-2-2-2-5-------|
E[-0-0-0-0-0-0-0-0-0-0-0-0-0-0-0-0-0-0-0-0-0-0-0-0-3-------|
 [Guitar 2
 [ [---------------------------------------------] ~~~~~~~~
E[---------------------------------------------------------|
B[---------------------------------------------------------|
G[---------------------------------------------------------|
D[-------------------------------------------------5-------|
A[-2-2-2-2-2-2-2-2-2-2-2-2-2-2-2-2-2-2-2-2-2-2-2-2---------|
E[-0-0-0-0-0-0-0-0-0-0-0-0-0-0-0-0-0-0-0-0-0-0-0-0---------|

 Rpt Main Riff

  [-PM-]       [-PM-]      [-PM-]      PM
E------------------------------------------------|
B------------------------------------------------|
G------------------------------------------------|
D-------12-\11-------7-/9--------12-\11----------|
A-------10-\9--------5-/7--------10-\9----8\7-\--|
E-0-0-0--------0-0-0-------0-0-0--------0-6\5-\--|

  [-PM-]       [-PM-]      [-PM-]      
E---------------------------------------------------|
B---------------------------------------------------|
G---------------------------------------------------|
D-------12-\11-------7-/9--------12-\11-12/14-14-14-|
A-------10-\9--------5-/7--------10-\9--10/12-12-12-|
E-0-0-0--------0-0-0-------0-0-0--------------------| 

 Chorus
 
  [---------------------------PM---------------------------------]
E-------------------------------------------------------------------|
B-------------------------------------------------------------------|
G-------------------------------------------------------------------|
D-12121212121212121212121212121212\1111111111111111111111111111111--|
A-10101010101010101010101010101010\9-9-9-9-9-9-9-9-9-9-9-9-9-9-9-9--|
E-------------------------------------------------------------------|

  [-PM-]       [-PM-]      
E--------------------------|
B--------------------------|
G--------------------------|
D-------12-\11-------7-/9--|
A-------10-\9--------5-/7--|
E-0-0-0--------0-0-0-------| Rpt

  Guitar 1
   [---------------------------PM---------------------------------]
E[-------------------------------------------------------------------|
B[-------------------------------------------------------------------|
G[-------------------------------------------------------------------|
D[-12121212121212121212121212121212\1111111111111111111111111111111--|
A[-10101010101010101010101010101010\9-9-9-9-9-9-9-9-9-9-9-9-9-9-9-9--|
E[-------------------------------------------------------------------|
 [Guitar 2
E[-------------------------------------------------------------------|
B[-------------------------------------------------------------------|
G[----------------------------------1111111111111111111111111111111--|
D[-------------------------------------------------------------------|
A[-------------------------------------------------------------------|
E[-------------------------------------------------------------------|

 Rpt Intro Riff 4 X

 Rpt Verse structure and Chorus
 Rpt Intro Riff 4 X
                                                     To Feedback 
E-------------------------------------------------------------------|
B-------------------------------------------------------------------|
G-------------------------------------------------------------------|
D-------------------------------------------------------------------|
A-2-------------------------(2)-------------------------------------|
E-0-------------------------(0)-------------------------------------|
                                                      Trem Vibrato
E-------------------------------------------------------------------|
B-------------------------------------------------------------------|
G-4-------------------------(4)------------------------<5>----------|
D-2-------------------------(2)-------------------------------------|
A-2-------------------------(2)-------------------------------------|
E-0-------------------------(0)-------------------------------------|
 
  Guitar 1
                                                     ph~~~~
E[-------------------------------------------------------------------|
B[-------------------------------------------------------------------|
G[-------------------------------------------------------------------|
D[-2----------------------3------2--------------------2--------------|
A[-2--------2------1--------------------2------1---------------------|
E[-0-----------------------------------------------------------------|
 [Guitar 2
E[-------------------------------------------------------------------|
B[-------------------------------------------------------------------|
G[-4-------------------------(4)-------------------------------------|
D[-2-------------------------(2)-------------------------------------|
A[-2-------------------------(2)-------------------------------------|
E[-0-------------------------(0)-------------------------------------|

  Guitar 1
E[-------------------------------------------------------------------|
B[-------------------------------------------------------------------|
G[-------------------------------------------------------------------|
D[-2----------------------3------2--------------------3--------------|
A[-2--------2------1--------------------2------1---------------------|
E[-0-----------------------------------------------------------------|
 [Guitar 2
E[-------------------------------------------------------------------|
B[-------------------------------------------------------------------|
G[------------------------10-----9--------------------10-\-----------|
D[----------9------8--------------------9------8---------------------|
A[-------------------------------------------------------------------|
E[-------------------------------------------------------------------|
                                                          Rpt

  Guitar 1
E[-------------------------------------------------------------------|
B[-------------------------------------------------------------------|
G[-------------------------------------------------------------------|
D[-2----------------------3------2--------------------3--------------|
A[-2--------2------1--------------------2------1---------------------|
E[-0-----------------------------------------------------------------|
 [Guitar 2                        ~~~~wild vibrato~~~~~
E[-------------------------------------------------------------------|
B[-------------------------------------------------------------------|
G[------------------------10-----9------------(9)--------------------|
D[----------9------8-------------------------------------------------|
A[-------------------------------------------------------------------|
E[-------------------------------------------------------------------|

 Outro is this chord played over and over with wah.

E----|
B----|
G-9--|
D-9--|
A-7--|
E----|



END





Comments


Popular Death Angel tabs & chords
Killing Shadows Bass Tabs
3rd Floor Tabs
A Room With A View Tabs
Devils Metal Tabs
Evil Priest Tabs
Im Bored Tabs
Steal The Crown Intro Tabs
Stop Tabs
Voracious Souls Tabs
A Room With A View Ukulele


Song lyrics



↑ Back to top | Tablatures and chords are parodies/interpretations of the original songs. You may use it for private study, scholarship, research or language learning purposes only
© 2014 AZChords.com Contact us | Privacy policy | DMCA | Add/correct tabs | Request tabs | Top 50 tabs