>
 >
Falling Asleep

Falling Asleep Guitar Tabs

Death Angel - Falling Asleep chords, tabs, tablatures, lyrics

Guitar lessons | Add/correct | Request | Top 50 tabs Artists:  A B C D E F G H I J K L M N O P Q R S T U V W X Y Z 0-9

Falling Asleep Guitar Tabs – Death Angel

CD, Sheet music, Poster

Do you like Falling Asleep? Share with your friends now
Tabs
Band:  Death Angel

Copyright (c)  (Geffen) (1990)
Version 1.0 - (25/03/05)



.  - palm mute           /  - slide up to
\  - slide down to       ~  - vibrato
h  - hammer on           b  - Bend
p  - pull off            Suffixes for bend
t  - tap                 f  - full bend    h - half bend
ph - pinched harmonic    q  - quarter bend t - tap bend
*  - see comment         ^  - Hold bend    r release bend
x  - Stuccatto           ~  - vibrato bend
,  - slight palm mute    () - ghost note, sustained note
"  - tremolo note        <> - Trill

Tunning E A D G B E
 
 Intro

 Musical box followed by bass and drums.


  Guitar 1
E[--------------------------------------------|
B[-15-13----------------13-11-----------------|
G[-------14-12-14-12----------12-10-12-10-----|
D[-------------------14-------------------12--|
A[--------------------------------------------|
E[--------------------------------------------|
 [Guitar 2
E[--------------------------------------------|
B[--------------------------------------------|
G[--------------------------------------------|
D[-9--7-----------------7--5------------------|
A[-------9--7--9--7-----------7--5--7--5------|
E[-------------------9\-------------------7\--|

  Guitar 1
E[-----------------------------------------------------------------|
B[-----------------------------------------------------------------|
G[----------------8-10----------------9-11-------------------10-12-|
D[------8-10-8-10-----------9-11-9-11------------10-12-10-12-------|
A[-8-10----------------9-11----------------10-12-------------------|
E[-----------------------------------------------------------------|
 [Guitar 2
E[-----------------------------------------------------------------|
B[-----------------------------------------------------------------|
G[-----------------------------------------------------------------|
D[----------------3-5-----------------2-4--------------------1--3--|
A[------3-5--3-5------------2-4--2-4-------------1--3--1--3--------|
E[-3-5-----------------2-4-----------------1--3--------------------|

  Guitat 1      PM          [PM]
E[-------------------------------------|
B[-------------------------------------|
G[----------------5------4-------------|
D[-2------5-------5------4-------------|
A[-2------5-------3------2-------12\---|
E[-0------3-----0------------0-0-12\---|
 [Guitar 2      PM
E[-------------------------------------|
B[-------------------------------------|
G[----------------5------4----4--------|
D[-2------5-------5------4----4--------|
A[-2------5-------3------2----2--------|
E[-0------3-----0----------------------|

                             ph~~~~~~
E-------------------------------------|
B-------------------------------------|
G----------------5------4----4--------|
D-2------5-------5------4-------------|
A-2------5-------3------2-------------|
E-0------3----------------------------| Rpt
                             ~~~~~~~~
E-------------------------------------|
B-------------------------------------|
G----------------5------4---/9--------|
D-2------5-------5------4-------------|
A-2------5-------3------2-------------|
E-0------3----------------------------|

 [PM]     [PM]    [PM]    [PM]
E----------------------------------|
B----------------------------------|
G----------------------------------|
D-----------------5-5-5---4-4-4----|
A-2-2-2---5-5-5---3-3-3---2-2-2----|
E-0-0-0---3-3-3--------------------|

  ~~~~~~~~ ~~~~~~ ~ ~ ~~~~ ~ ~ ~~
E----------------------------------|
B----------------------------------|
G----------------------------------|
D-6------/9------\5-7p5---4-5p4----|
A----------------------------------|
E----------------------------------|

  Guitar 1
 [PM]      [PM]     [PM]     [PM]
E[-------------------------------------|
B[-------------------------------------|
G[-------------------------------------|
D[--------------5/7---------------7/8--|
A[-2-2-5-2--2-2-3/5--2-2-5-2--2-2-5/6--|
E[-0-0-3p0--0-0------0-0-3p0--0-0------|
 [
 [Guitar 2                      ph ph~~
E[-------------------------------------|
B[-------------------------------------|
G[--------------------------------7-8--|
D[-------------------------------------|
A[-------------------------------------|
E[-------------------------------------|

 Both guitars
 [PM]      [PM]     [PM]     [PM]
E-------------------------------------|
B-------------------------------------|
G-------------------------------------|
D--------------5/7---------------7/8--|
A-2-2-5-2--2-2-3/5--2-2-5-2--2-2-5/6--|
E-0-0-3p0--0-0------0-0-3p0--0-0------| Rpt 2 X

  Guitar 1
E[-------------------------------------|
B[-------------------------------------|
G[----------------5------4-------------|
D[-2------5-------5------4-------------|
A[-2------5-------3------2-------------|
E[-0------3----------------------------| 
 [Guitar 2         ~~~~~~ ~~~~~~~~~  
E[-------------------------------------|
B[----------------13----\12---br-------|
G[-------------------------------------|
D[-------------------------------------|
A[-------------------------------------|
E[-------------------------------------|

                             ph~~~~~~
E-------------------------------------|
B-------------------------------------|
G----------------5------4---/9--------|
D-2------5-------5------4-------------|
A-2------5-------3------2-------------|
E-0------3----------------------------|
 
                             ph~~~~~~
E-------------------------------------|
B-------------------------------------|
G----------------5------4----2--------|
D-2------5-------5------4-------------|
A-2------5-------3------2-------------|
E-0------3----------------------------|

  Guitar 1
 [PM]      [PM]     [PM]     [PM]
E[-------------------------------------|
B[-------------------------------------|
G[-------------------------------------|
D[--------------5/7---------------7/8--|
A[-2-2-5-2--2-2-3/5--2-2-5-2--2-2-5/6--|
E[-0-0-3p0--0-0------0-0-3p0--0-0------|
 [
 [Guitar 2          [PM]      [PM]               
E[-------------------------------------|
B[-------------------------------------|
G[-------------------------------------|
D[--------------------------------7/8--|
A[-2---2----2----2---2-2-5-2--2-2-5/6--|
E[-0---0----0----0---0-0-3p0--0-0------|

 Both guitars
 [PM]      [PM]     [PM]     [PM]
E-------------------------------------|
B-------------------------------------|
G-------------------------------------|
D--------------5/7---------------7/8--|
A-2-2-5-2--2-2-3/5--2-2-5-2--2-2-5/6--|
E-0-0-3p0--0-0------0-0-3p0--0-0------| 

E-------------------------------|
B-------------------------------|
G-------------------------------|
D-9-9/12\9-9\5/7-9-9/12\9-9\7/8-|
A-7-7/10\7-7\3/5-7-7/10\7-7\5/6-|
E-------------------------------| Rpt

 Additional guitar (last time)
E-------------------------------|
B-------------------------------|
G-------------------------7-8-9-|
D-------------------------------|
A-------------------------------|
E-------------------------------|

 Main Riff
 Guitar on own
 [--PM--]       [--PM--]      [--PM--]     [--PM--]
E---------------------------------------------------------|
B---------------------------------------------------------|
G---------------------------------------------------------|
D---------------------------------------------------------|
A-2-2-2-2-5---4-2-2-2-2-4---5-2-2-2-2-5---4-2-2-2-2-4---5-|
E-0-0-0-0-3-0-2-0-0-0-0-2-0-3-0-0-0-0-3-0-2-0-0-0-0-2-0-3-|

  Guitar 1
  [--PM--]       [--PM--]      [--PM--]     --PM--]
E[---------------------------------------------------------|
B[---------------------------------------------------------|
G[---------------------------------------------------------|
D[---------------------------------------------------------|
A[-2-2-2-2-5---4-2-2-2-2-4---5-2-2-2-2-5---4-2-2-2-2-4---5-|
E[-0-0-0-0-3-0-2-0-0-0-0-2-0-3-0-0-0-0-3-0-2-0-0-0-0-2-0-3-|
 [Guitar 2
E[---------------------------------------------------------|
B[---------------------------------------------------------|
G[---------------------------------------------------------|
D[---------------------------------------------------------|
A[-2-2----2-2----2-2----2-2----2-2----2-2----2-2-(2)-4---5-|
E[-0-0----0-0----0-0----0-0----0-0----0-0----0-0-(0)-2-0-3-|

 Both guitars
 [--PM--]       [--PM--]      [--PM--]     [--PM--]
E---------------------------------------------------------|
B---------------------------------------------------------|
G---------------------------------------------------------|
D---------------------------------------------------------|
A-2-2-2-2-5---4-2-2-2-2-4---5-2-2-2-2-5---4-2-2-2-2-4---5-|
E-0-0-0-0-3-0-2-0-0-0-0-2-0-3-0-0-0-0-3-0-2-0-0-0-0-2-0-3-| Rpt
 
 Riff A
E-----------------------------|
B-----------------------------|
G-----------------------------|
D-7-7/8\7-7/8\7-7/8/10-10\8\5-|
A-5-5/6\5-5/6\5-5/6/8--8-\6\5-|
E-----------------------------|

 Verse

 Rpt Main Riff
 Rpt Riff A
 Rpt Main Riff
 Rpt Riff A
 Rpt Main Riff
 Rpt Riff A
 Rpt Main Riff
 Rpt Riff A

 Bridge
  Guitar 1
                             h     h   
E[------------------------------------------|
B[------------------------------------------|
G[------------------------------------------|
D[------5----3----3----2----7-8p7\5-7p5\3p2-|
A[-5----3----1----0----0--------------------|
E[-3----------------------------------------|
 [Guitar 2
E[------------------------------------------|
B[------------------------------------------|
G[------------------------------------------|
D[------5----3----3----2----2---------------|
A[-5----3----1----0----0----0---------------|
E[-3----------------------------------------|

E---------------------------------|
B---------------------------------|
G---------------------------------|
D------5----3----3----2----(2)----|
A-5----3----1----0----0----(0)----|
E-3-------------------------------|

 Chorus
  Guitar 1
     [----------PM-------------]
E[---------------------------------|
B[---------------------------------|
G[---------------------------------|
D[-----------------2-3p2p0---------|
A[---------0-2-3-5---------3p2-----|
E[-0-0-2-3---------------------3p--|
 [Guitar 2
E[---------------------------------|
B[---------------------------------|
G[---------------------------------|
D[---------------------------------|
A[-2-------------------------------|
E[-0-------------------------------|

  Guitar 1
     [----------PM-------------]
E[---------------------------------|
B[---------------------------------|
G[---------------------------------|
D[-----------------2-3p2p0---------|
A[---------0-2-3-5---------3p2-----|
E[-0-0-2-3---------------------3p--|
 [Guitar 2
E[---------------------------------|
B[---------------------------------|
G[---------------------------------|
D[---------------------------------|
A[-2-------2-----------------------|
E[-0-------0-----------------------|

 Both guitars
     [----------PM-------------]
E[---------------------------------|
B[---------------------------------|
G[---------------------------------|
D[-----------------2-3p2p0---------|
A[-2-------0-2-3-5---------3p2-----|
E[-0-0-2-3---------------------3p--| Rpt 8 X

  Guitar 1
E--------------------------------------------|
B--------------------------------------------|
G--------------------------------------------|
D-2--------7/9------\5------7/12----\7-------|
A-2--------5/7------\3------5/10----\5-------|
E-0------0-----------------------------------|
  Guitar 2
E--------------------------------------------|
B--------------------------------------------|
G--------------------------------------------|
D-2--------7/9------\5-------/12----\7-------|
A-2--------5/7------\3-------/10----\5-------|
E-0------0-----------------------------------|

  Guitar 1
E[-------------------------------------------------|
B[-------------------------------------------------|
G[-------------------------------------------------|
D[---------------------5/7---------------------7/8-|
A[---------5-----------3/5---------5-----------5/6-|
E[-0-0-0-0-3p0-0-0-0-0-----0-0-0-0-3p0-0-0-0-0-----|
 [Guitar 2
E[-------------------------------------------------|
B[-------------------------------------------------|
G[-------------------------------------------------|
D[-2----------------------(2)----------------------|
A[-2----------------------(2)----------------------|
E[-0----------------------(0)----------------------|

  Guitar 1
E[-------------------------------------------------|
B[-------------------------------------------------|
G[-------------------------------------------------|
D[---------------------5/7---------------------7/8-|
A[---------5-----------3/5---------5-----------5/6-|
E[-0-0-0-0-3p0-0-0-0-0-----0-0-0-0-3p0-0-0-0-0-----|
 [Guitar 2                      harmonic trem dive
E[-------------------------------------------------|
B[-------------------------------------------------|
G[------------------------<5>----------------------|
D[-9-----------------------------------------------|
A[-7-----------------------------------------------|
E[-0-----------------------------------------------|

 [------PM--------]   [------PM------]
E------------------------------------------|
B------------------------------------------|
G------------------------------------------|
D-------------------7-----------------7/8--|
A-2--2--5--2--2--2--5--2--2--5--2--2--5/6--|
E-0--0--3--0--0--0-----0--0--3--0--0-------| Rpt 3 X

E---------------------------------|
B---------------------------------|
G---------------------------------|
D-------------5/7-------------7/8-|
A-2-2-5---2-2-3/5-2-2-5---2-2-5/6-|
E-0-0-3p0-0-0-----0-0-3p0-0-0-----| Rpt 7 X
 This is also backing for 1st half of guitar solo.

 Backing for 2nd half of guitar solo.
  [------------PM----------------]
E----------------------------------|
B----------------------------------|
G----------------------------------|
D-----------------5-5-5-5-4-4-4-4--|
A-2-2-2-2-5-5-5-5-3-3-3-3-2-2-2-2--|
E-0-0-0-0-3-3-3-3------------------| Rpt 4 X


E---------|
B---------|
G---------|
D-2---(2)-|
A-2---(2)-|
E-0---(0)-|
 
 Rpt Main Riff
 Rpt Verse
 Rpt Bridge

 Additional guitar in Bridge
                  ~~~~
E----------------------|
B-10-11-10\8-----------|
G------------10p9\7----|
D----------------------|
A----------------------|
E----------------------|

  Guitar 1
     [----------PM-------------]
E[---------------------------------|
B[---------------------------------|
G[---------------------------------|
D[-----------------2-3p2p0---------|
A[---------0-2-3-5---------3p2-----|
E[-0-0-2-3---------------------3p--|
 [Guitar 2
E[---------------------------------|
B[---------------------------------|
G[---------------------------------|
D[---------------------------------|
A[-2-------------2---2---2---2-----|
E[-0-------------0---0---0---0-----|

 Rpt Chorus

E------|
B------|
G------|
D-2----|
A-2----|
E-0----|

 Bass on own

 


  Guitar 1
E[--------------------------------------------|
B[-15-13----------------13-11-----------------|
G[-------14-12-14-12----------12-10-12-10-----|
D[-------------------14-------------------12--|
A[--------------------------------------------|
E[--------------------------------------------|
 [Guitar 2
E[--------------------------------------------|
B[--------------------------------------------|
G[--------------------------------------------|
D[-9--7-----------------7--5------------------|
A[-------9--7--9--7-----------7--5--7--5------|
E[-------------------9\-------------------7\--|

  Guitar 1                                                 ~~~~
E[-----------------------------------------------------------------|
B[-----------------------------------------------------------------|
G[----------------8-10----------------9-11-------------------------|
D[------8-10-8-10-----------9-11-9-11------------10-12-7---9-----\-|
A[-8-10----------------9-11----------------10-12-------5-----------|
E[-----------------------------------------------------------------|
 [Guitar 2
E[-----------------------------------------------------------------|
B[-----------------------------------------------------------------|
G[-----------------------------------------------------------------|
D[----------------3-5-----------------2-4--------------7---9-----\-|
A[------3-5--3-5------------2-4--2-4-------------1--3--5---7-----\-|
E[-3-5-----------------2-4-----------------1--3------------0-------|




END





Comments


Popular Death Angel tabs & chords
Killing Shadows Bass Tabs
A Room With A View 1 Tabs
Dethroned Tabs
Evil Priest Tabs
Final Death Tabs
Road Mutants Tabs
Stop Tabs
Ultra Violence Intro 1 Tabs
Ultra Violence Intro 2 Tabs
A Room With A View Ukulele


Song lyrics



↑ Back to top | Tablatures and chords are parodies/interpretations of the original songs. You may use it for private study, scholarship, research or language learning purposes only
© 2014 AZChords.com Contact us | Privacy policy | DMCA | Add/correct tabs | Request tabs | Top 50 tabs