>
 >
Bored

Bored Guitar Tabs

Death Angel - Bored chords, tabs, tablatures, lyrics

Guitar lessons | Add/correct | Request | Top 50 tabs Artists:  A B C D E F G H I J K L M N O P Q R S T U V W X Y Z 0-9

Bored Guitar Tabs – Death Angel

CD, Sheet music, Poster

Do you like Bored? Share with your friends now
Bass TabsTabs
Band:  Death Angel

Copyright (c)  (ENIGMA) (1988)
Version 1.0 - (11/10/05)



.  - palm mute           /  - slide up to
\  - slide down to       ~  - vibrato
h  - hammer on           b  - Bend
p  - pull off            Suffixes for bend
t  - tap                 f  - full bend    h - half bend
ph - pinched harmonic    q  - quarter bend t - tap bend
*  - see comment         ^  - Hold bend    r release bend
x  - Stuccatto           ~  - vibrato bend
,  - slight palm mute    () - ghost note, sustained note
"  - tremolo note        <> - Trill

Tunning E A D G B E


 Intro

      h   h
E--------------|
B--------------|
G--------------|
D-2p0-2p0-2p0--|
A--------------|
E--------------|


  [--PM--] ~~~   ~~~[--PM--] ~~~          ~~~~
E------------------------------------------------|
B------------------------------------------------|
G------------------------------------------------|
D---------------------------------2p0------------|
A-------------------------------------2p0--------|
E-0-0-0-0-3--p0-2---0-0-0-0-3--p0---------3------|

  [--PM--] ~~    ~~~[--PM--] ~~~
E-------------------------------------------------|
B-------------------------------------------------|
G-------------------------------------------------|
D-------------------------------------0------2----|
A--------------------------------/1/2---/1/2------|
E-0-0-0-0-3--0-0-2---0-0-0-0-3-p0-----------------|


  Guitar 1
  [--PM-]~~~    ~~~[--PM--] ~~~
E[----------------------------------------------|
B[----------------------------------------------|
G[----------------------------------------------|
D[---------------------------------2p0-2p0-2p0--|
A[----------------------------------------------|
E[-0-0-0-3--0-0-2---0-0-0-0-3--p0---------------|
 [Guitar 2
E[----------------------------------------------|
B[----------------------------------------------|
G[----------------------------------------------|
D[---------------------------------9-------9----|
A[---------------------------------7-------7----|
E[---------------------------------0-------0----| Rpt


  Guitar 1
   [--PM--]~~~    ~~~[--PM--] ~~~
E[-------------------------------------------------|
B[-------------------------------------------------|
G[-------------------------------------------------|
D[----------------------------------2p0-2p0-2p0----|
A[-------------------------------------------------|
E[-0-0-0-0-3--0-0-2---0-0-0-0-3--p0----------------|
 [Guitar 2
 [        [------------------PM------------------]
E[-------------------------------------------------|
B[-------------------------------------------------|
G[-------------------------------------------------|
D[-------------------------------------------------|
A[-------------------------------------------------|
E[---------0-0-0-0-0-0-0-0-0-0-0-0-0-0-0-0-0-0-0---|

  Guitar 1
   [--PM--]~~~    ~~~[--PM--] 
E[---------------------------------------------------|
B[---------------------------------------------------|
G[---------------------------------------------------|
D[----------------------------------2p0-2p0-2p0------|
A[---------------------------------------------------|
E[-0-0-0-0-3--0-0-2---0-0-0-0-3--p0------------------|
 [Guitar 2
 [[-------------------PM-----------------------] h
E[---------------------------------------------------|
B[---------------------------------------------------|
G[---------------------------------------------------|
D[---------------------------------------------------|
A[---------------------------------------------5-7---|
E[-0-0-0-0-0-0-0-0-0-0-0-0-0-0-0-0-0-0-0-0-0-0-------| Rpt 5 X

  Guitar 1
   [--PM--]~~~    ~~~[--PM--] ~~~
E[---------------------------------------------------|
B[---------------------------------------------------|
G[---------------------------------------------------|
D[----------------------------------2p0-2p0-2p0------|
A[---------5------4-----------3----------------------|
E[-0-0-0-0-3--0-0-2---0-0-0-0-3--p0------------------|
 [Guitar 2
 [ [--PM--]~~~    ~~~[--PM--] ~~~
E[---------------------------------------------------|
B[---------------------------------------------------|
G[---------------------------------------------------|
D[----------------------------------7----(7)---------|
A[---------5------4-----------5-----5----(5)---------|
E[-0-0-0-0-3--0-0-2---0-0-0-0-3--p0------------------| Rpt 7 X

  Guitar 1
   [--PM--]~~~    ~~~[--PM--] ~~~
E[---------------------------------------------------|
B[---------------------------------------------------|
G[---------------------------------------------------|
D[----------------------------------2p0-2p0-2p0------|
A[---------5------4-----------3----------------------|
E[-0-0-0-0-3--0-0-2---0-0-0-0-3--p0------------------|
 [Guitar 2
 [ [--PM--]~~~    ~~~[--PM--] ~~~         ph~~~~
E[---------------------------------------------------|
B[---------------------------------------------------|
G[---------------------------------------------------|
D[----------------------------------7----------------|
A[---------5------4-----------5-----5-----5----------|
E[-0-0-0-0-3--0-0-2---0-0-0-0-3--p0------------------|


 Verse

  Guitar 1
   [--PM--]~~~    ~~~[--PM--] ~~~
E[-------------------------------------------------|
B[-------------------------------------------------|
G[-------------------------------------------------|
D[----------------------------------2p0-2p0-2p0----|
A[-------------------------------------------------|
E[-0-0-0-0-3--0-0-2---0-0-0-0-3--p0----------------|
 [Guitar 2 clean funky
E[----------------------------------12-12121212----|
B[----------------------------------12-12121212----|
G[----------------------------------12-------------|
D[-------------------------------------------------|
A[-------------------------------------------------|
E[-------------------------------------------------|

  Guitar 1
   [--PM--]~~~    ~~~[--PM--] ~~~
E[-------------------------------------------------|
B[-------------------------------------------------|
G[-------------------------------------------------|
D[----------------------------------2p0-2p0-2p0----|
A[-------------------------------------------------|
E[-0-0-0-0-3--0-0-2---0-0-0-0-3--p0----------------|
 [Guitar 2 clean funky
E[-------------------------------------------------|
B[----------------------------------10\------------|
G[-----------------------------------9\------------|
D[-------------------------------------------------|
A[-------------------------------------------------|
E[-------------------------------------------------|

  Guitar 1
   [--PM--]~~~    ~~~[--PM--] ~~~
E[-------------------------------------------------|
B[-------------------------------------------------|
G[-------------------------------------------------|
D[----------------------------------2p0-2p0-2p0----|
A[-------------------------------------------------|
E[-0-0-0-0-3--0-0-2---0-0-0-0-3--p0----------------|
 [Guitar 2 clean funky
E[----------------------------------12-12121212----|
B[----------------------------------12-12121212----|
G[----------------------------------12-------------|
D[-------------------------------------------------|
A[-------------------------------------------------|
E[-------------------------------------------------|

 Both guitars
  [--PM--]~~~    ~~~[--PM--] ~~~
E---------------------------------------------------|
B---------------------------------------------------|
G---------------------------------------------------|
D----------------------------------2p0-2p0-2p0------|
A---------------------------------------------------|
E-0-0-0-0-3--0-0-2---0-0-0-0-3--p0------------------|


  [--PM--]~~~    ~~~[--PM--] ~~~
E---------------------------------------------------|
B---------------------------------------------------|
G---------------------------------------------------|
D----------------------------------7-----(7)--------|
A---------5------4-----------5-----5-----(5)--------|
E-0-0-0-0-3--0-0-2---0-0-0-0-3--p0------------------| Rpt

  Guitar 1
   [--PM--]~~~    ~~~[--PM--] ~~~
E[-------------------------------------------------|
B[-------------------------------------------------|
G[-------------------------------------------------|
D[----------------------------------2p0-2p0-2p0----|
A[-------------------------------------------------|
E[-0-0-0-0-3--0-0-2---0-0-0-0-3--p0----------------|
 [Guitar 2 clean funky
E[----------------------------------12-12121212----|
B[----------------------------------12-12121212----|
G[----------------------------------12-------------|
D[-------------------------------------------------|
A[-------------------------------------------------|
E[-------------------------------------------------| Rpt

  Guitar 1
   [--PM--]~~~    ~~~[--PM--] 
E[-------------------------------------------------|
B[-------------------------------------------------|
G[-------------------------------------------------|
D[----------------------------------2p0-2p0-2p0----|
A[-------------------------------------------------|
E[-0-0-0-0-3--0-0-2---0-0-0-0-3--p0----------------|
 [Guitar 2 clean funky
E[-------------------------------------------------|
B[----------------------------------10-1010--------|
G[----------------------------------9--9-9---------|
D[-------------------------------------------------|
A[-------------------------------------------------|
E[-------------------------------------------------|

  Guitar 1
   [--PM--]~~~    ~~~[--PM--] 
E[-------------------------------------------------|
B[-------------------------------------------------|
G[-------------------------------------------------|
D[----------------------------------2p0-2p0-2p0----|
A[----------------------------------------------2--|
E[-0-0-0-0-3--0-0-2---0-0-0-0-3--p0-------------0--|
 [Guitar 2 clean funky
E[----------------------------------17--15------12-|
B[----------------------------------17--15------12-|
G[-------------------------------------------------|
D[-------------------------------------------------|
A[-------------------------------------------------|
E[-------------------------------------------------|

  [--PM--]~~~    ~~~[--PM--] 
E---------------------------------------------------|
B---------------------------------------------------|
G---------------------------------------------------|
D----------------------------------7-----(7)--------|
A---------5------4-----------5-----5-----(5)--------|
E-0-0-0-0-3--0-0-2---0-0-0-0-3--p0------------------| Rpt 3 X

  Guitar 1
   [--PM--]~~~    ~~~[--PM--] ~~~
E[---------------------------------------------------|
B[---------------------------------------------------|
G[---------------------------------------------------|
D[----------------------------------7-----(70----\---|
A[---------5------4-----------3-----5-----(5)----\---|
E[-0-0-0-0-3--0-0-2---0-0-0-0-3--p0------------------|
 [Guitar 2
 [ [--PM--]~~~    ~~~[--PM--] ~~~         ph~~~~
E[---------------------------------------------------|
B[---------------------------------------------------|
G[---------------------------------------------------|
D[----------------------------------7----------------|
A[---------5------4-----------5-----5-----5----------|
E[-0-0-0-0-3--0-0-2---0-0-0-0-3--p0------------------|

 Rpt Verse

  Guitar 1    Trem dive
E[---------------------------------------------------------------------|
B[---------------------------------------------------------------------|
G[---------------------------------------------------------------------|
D[-2---------------------(2)------------------9------------(9)---------|
A[-2---------------------(2)------------------7------------(7)---------|
E[-0---------------------(0)------------------0------------(0)---------|
 [Guitar 2
E[---------------------------------------------------------------------|
B[---------------------------------------------------------------------|
G[---------------------------------------------------------------------|
D[-2---------------------(2)------------------9------------(9)---------|
A[-2---------------------(2)------------------7------------(7)---------|
E[-0---------------------(0)------------------0------------(0)---------|

 Backing for guitar solo is main riff.

 Guitar Solo

  rake            rake              rake
E--------17--(17)---------17--(17)----------17--(17)---|
B-----17---------------17----------------17------------|
G---x----------------x-----------------x---------------|
D-x----------------x-----------------x-----------------|
A------------------------------------------------------|
E------------------------------------------------------|

E---17--(17)------17-------17----17----17--|
B---------------------17------17----17-----|
G------------------------------------------|
D------------------------------------------|
A------------------------------------------|
E------------------------------------------|


     rake ~~~~~~                                           ~~~~
E--------------------------------------------------------------|
B-17-----20-----20---19-17-------------------------------------|
G------x-------------------19b--r-17---------------------------|
D----x--------------------------------19-17---19b17-16---------|
A------------------------------------------------------17-19---|
E--------------------------------------------------------------|

E---------------------------------------------------12--|
B-----------------------------------------12--12-15-----|
G-------------------------------12--12-14---------------|
D---------------------12--12-14-------------------------|
A-----------12--12-14-----------------------------------|
E-0-0-12-14---------------------------------------------|

     h     h           h     h                                         ~~~
E-12-15p12----12-----------------------------------------------------------|
B----------15----15-12-15p12-15p12----12-----------------------------------|
G----------------------------------14----12----12------------14-12-/14\----|
D-------------------------------------------14----14-12------14-12-/14\9-\-|
A-------------------------------------------------------14-----------------|
E--------------------------------------------------------------------------|

            ~~~                h      ~~~     h           h
E-----------------------------------------------------------------------|
B-----------------------------------------------------------------------|
G-14b---p12----14b---p12----12-14p12-------12-14p12---------------------|
D-----------14-----------14----------14b------------14-12-14------------|
A-----------------------------------------------------------------------|
E-----------------------------------------------------------------------|

                                             E
  ph                      PM
E-15b-r15-12----12------------------------------------------------------|
B------------15b-------------12-----------------------------------------|
G------------------14br12----12----12-14b-r12---------------------------|
D-------------------------14----14-----------14-------------(14)--------|
A-----------------------------------------------------------------------|
E-----------------------------------------------------------------------|

               Slow trem dive
E-----------------------------------------------------------------------|
B-----------------------------------------------------------------------|
G-----------------------------------------------------------------------|
D-------------------------------(14)------------------------------------|
A-----------------------------------------------------------------------|
E-----------------------------------------------------------------------|

END





Comments


Popular Death Angel tabs & chords
Bored Bass Tabs
A Room With A View Tabs
A Room With A View 1 Tabs
Final Death Tabs
Im Bored Tabs
Im Bored 1 Tabs
Organization Tabs
Thrown To The Wolves Tabs
Ultra Violence Tabs
Ultra Violence Intro 2 Tabs


Song lyrics



↑ Back to top | Tablatures and chords are parodies/interpretations of the original songs. You may use it for private study, scholarship, research or language learning purposes only
© 2014 AZChords.com Contact us | Privacy policy | DMCA | Add/correct tabs | Request tabs | Top 50 tabs