>
 >
Sri Lanka Sex Hotel

Sri Lanka Sex Hotel Bass Tabs

Dead Milkmen - Sri Lanka Sex Hotel chords, tabs, tablatures, lyrics

Guitar lessons | Add/correct | Request | Top 50 tabs Artists:  A B C D E F G H I J K L M N O P Q R S T U V W X Y Z 0-9

Sri Lanka Sex Hotel Bass Tabs – Dead Milkmen

CD, Sheet music, Poster

Do you like Sri Lanka Sex Hotel? Share with your friends now
Bass TabsTabs
-----------------------------------------------------------------------------
		        Dead Milkmen - Sri Lanka Sex Hotel
-----------------------------------------------------------------------------


For Christ's sake, why hasn't this song been tabbed yet?


Intro:                Verse:
-----                 -----
       A A#Bm               A A#Bm
G------------------   G--------------------|
D------------------   D--------------------|
A---7--------------   A---7----------------|
E------5-6-7--7-7--   E-----5-6-7---7-7-7--|

There are 2 different rhythms involved with the same basic riff. The
intro and verse being slightly different. It's not easy to show the
exact timing, but I had a shot. The easiest way is to listen to the
recording, and you'll hear the emphasis on different notes. Speaking
for myself, I hear the emphasis on the Bm in the intro, and during
the verse, I hear it on the lead-in note. I will add that each time
you play a verse, you play the intro rhythm once first before
settling in to the verse rhythm. Confusing, but there you go. :)


Chorus:
------

G----------------------------------------|
D----------------------------------------|
A-------------------------2-2------------| x3
E---2--2--2-2--3--3--3-3------5-5-3-3----|

G-------------------------|
D-------------------------|
A-------------------------|
E---2--2--2-2--3--3--3-3--|

G----------------------------|
D----------------------------|
A---5--5---------------------|
E---------5--5--3--3--3------|

G----------------------------|
D----------------------------|
A---5--5--------3--3--3------|
E---------5--5---------------|

G---7--7--7--6--6--6---------|
D---------------------5------|
A----------------------------|
E----------------------------|


Solo:
----

    A               G
G-----------------------------------|
D-----------------------------------|
A---------7-----7---------5-----5---| (x3)
E---5---5-----5-----3---3-----3-----|

    Bm              C#m?
G-----------------------------------|
D---------4-----4---------5-----5---|
A---2---2-----2-----4---4-----4-----|
E-----------------------------------|

    D               G
G-----------------------------------|
D---------7-----7-------------------| (x3)
A---5---5-----5-----------5-----5---|
E-------------------3---3-----3-----|

   Bm
G-----
D-----
A--2--
E-----

I don't think the solo bit is entirely correct, but it's close.


End the song on G.



=============================================================================





Comments


Popular Dead Milkmen tabs & chords
Big Lizard 3 Bass Tabs
I Am The Walrus Bass Tabs
I Hate You, I Love You Bass Tabs
Plum Dumb 1 Bass Tabs
Smokin' Banana Peels Bass Tabs
Serrated Edge Chords
Life Is Shit Tabs
Punk Rock Girl 4 Tabs
Takin' Retards To The Zoo Tabs
Jasons Head Ukulele


Song lyrics



↑ Back to top | Tablatures and chords are parodies/interpretations of the original songs. You may use it for private study, scholarship, research or language learning purposes only
© 2014 AZChords.com Contact us | Privacy policy | DMCA | Add/correct tabs | Request tabs | Top 50 tabs