>
 >
Sri Lanka Sex Hotel

Sri Lanka Sex Hotel Guitar Tabs

Dead Milkmen - Sri Lanka Sex Hotel chords, tabs, tablatures, lyrics

Guitar lessons | Add/correct | Request | Top 50 tabs Artists:  A B C D E F G H I J K L M N O P Q R S T U V W X Y Z 0-9

Sri Lanka Sex Hotel Guitar Tabs – Dead Milkmen

CD, Sheet music, Poster

Do you like Sri Lanka Sex Hotel? Share with your friends now
Bass TabsTabs
"Sri Lanka Sex Hotel"
The Dead Milkmen

Hey this is an awesome Milkmen song. One of my favs. Did this by ear.

Verse Riff:
E-x-10-10-10-10-9--7--9--x-7--/-------------------------------------|
B-x-7--7--7--7--7--7--7--x-7--/-------------------------------------|
G-x-7--7--7--7--7--7--7--x-7--/--x-2-3-4-4-4-4--x-2-3-4-4-4-4-------|
D--------------------------------x-2-3-4-4-4-4--x-2-3-4-4-4-4-------|
A--------------------------------x-0-1-2-2-2-2--x-0-1-2-2-2-2-------|
E-------------------------------------------------------------------|


Chorus:

F#
Coming over
G
The first hill
Bm      A      G     F#     G
Felt my body jerk
    Bm        A       G        F#       G
The attendant did not strap me in
    Bm        A    G     F#      G
I'm sure that I am gonna die
     D     A           G
This is my last roller coaster ride
     D     A           G
This is my last roller coaster ride
     D     A    G
This is my last ride

[slow down]

Solo:
E-----------------------------------------------------------------------0-2---3-3-3-2-0--0-|
B-------2-2---2----3-2-2-0--------0h2---3-2-0---2-2-2---2---3-2-0-----3-------0----------3-|
G------2----2---2--2-------2-2--2-------2------2------2---2-------2----------------------2-|
D----2---------------------------------------2---------------------------------------------|
A-0----------------------------------------------------------------------------------------|
E------------------------------------------------------------------------------------------|


E-0-2---------3-3-3-2-0--5--3--2----3-3-3-2-0-----0-2------------3-3-3-2-0---2-------------|
B-------------5-5-5------7--5--3--0------------3-----------------------------3-------------|
G-----2---------------------------4------------2--------2--------------------4---[loud!]---|
D-------0---0----------------------------------0------0---0---0--------------4-------------|
A---------2-------------------------------------------------2------------------------------|
E------------------------------------------------------------------------------------------|


Lyrics:

Verse 1
---------------------------
Let's have sex with strangers in the men's room
We could do it and not get caught
Burn down the house where the metal kids live
All the Hendrix posters going up in flames
Let's have sex without birth control
Sell our offspring to some dirty old men
Let's play Big Black at 3 AM
And tell the neighbors they can all get fucked

Chorus
---------------------------
Comin' over the first hill
I felt my body jerk
The attendant did not strap me in
I'm sure that I am gonna die
This is my last roller coaster ride
This is my last roller coaster ride
This is my last ride

Verse 2
----------------------------
Down the street there's an accident
I hear that the bodies can still be seen
Let's call the sheriff a cock-sucker
See if he's read "The Killer Inside Me"
Let's have sex with pit bulls
Maybe pollute their blood line
Little Timmy's in the sandbox
At the daycare center run by ex-cons

Chorus
----------------------------
Comin' over the first hill
I felt my body jerk
The attendant did not strap me in
I see the loop is up ahead
This is my last roller coaster ride
This is my last roller coaster ride
This is my last ride

[SOLO]

Verse 3
-------------------------------------
Let's burn it down and knock it over
Let's have sex with it or leave it alone
3-D Jesus by my bedside
Talks to me when it's late at night
I thought I left you in Sri Lanka
Working the desk at the Sex Hotel
For Christ's sake why isn't Bob Hope dead yet?

Chorus
--------------------------------------
Comin' over the first hill
I felt my body jerk
The attendant did not strap me in
I feel the track below my feet
This is my last roller coaster ride
This is my last roller coaster ride
This is my last ride





Comments


Popular Dead Milkmen tabs & chords
Beach Song Bass Tabs
Filet Of Sole Bass Tabs
Gorilla Girl Bass Tabs
Labor Day Chords
Punk Rock Girl Chords
Punk Rock Girl (Intro) Chords
Big Time Operator Tabs
Punk Rock Girl 3 Tabs
Big Lizard Ukulele
I Dream Of Jesus Ukulele


Song lyrics



↑ Back to top | Tablatures and chords are parodies/interpretations of the original songs. You may use it for private study, scholarship, research or language learning purposes only
© 2014 AZChords.com Contact us | Privacy policy | DMCA | Add/correct tabs | Request tabs | Top 50 tabs