>
 >
Goodnight, Quiet City

Goodnight, Quiet City Guitar Tabs

Dead And Divine - Goodnight, Quiet City chords, tabs, tablatures, lyrics

Guitar lessons | Add/correct | Request | Top 50 tabs Artists:  A B C D E F G H I J K L M N O P Q R S T U V W X Y Z 0-9

Goodnight, Quiet City Guitar Tabs – Dead And Divine

CD, Sheet music, Poster

Do you like Goodnight, Quiet City? Share with your friends now
TabsTabs v2
Goodnight, Quiet City By Dead And Divine

Tuning: Eb, Ab, Db, Gb, Bb, Eb
My suggestion for this tuning is tune it right down to D standard and use a Capo on the 
fret.

Intro:

eb|--x--x-x-x-x-x--x--x-x-x-x-x--x--x-x-x-x-x--x--x-x-x-x-x-|
Bb|--7--7-7-7-7-7--8--8-8-8-8-8--7--7-7-7-7-7--8--8-8-8-8-8-|
Gb|--0--0-0-0-0-0--0--0-0-0-0-0--0--0-0-0-0-0--0--0-0-0-0-0-|
Db|--x--x-x-x-x-x--x--x-x-x-x-x--x--x-x-x-x-x--x--x-x-x-x-x-|
Ab|--7--7-7-7-7-7--7--7-7-7-7-7--7--7-7-7-7-7--7--7-7-7-7-7-|
Eb|--x--x-x-x-x-x--x--x-x-x-x-x--x--x-x-x-x-x--x--x-x-x-x-x-|

eb|--x--x-x-x-x-x--x--x-x-x-x-x--x--x-x-x-x-x--x--x-x-x-x-x-|
Bb|--7--7-7-7-7-7--8--8-8-8-8-8-10-1010101010--8--8-8-8-8-8-|
Gb|--0--0-0-0-0-0--0--0-0-0-0-0--0--0-0-0-0-0--0--0-0-0-0-0-|
Db|--x--x-x-x-x-x--x--x-x-x-x-x--0--0-0-0-0-0--x--x-x-x-x-x-|
Ab|--5--5-5-5-5-5--5--5-5-5-5-5--x--x-x-x-x-x--5--5-5-5-5-5-|
Eb|--x--x-x-x-x-x--x--x-x-x-x-x-10-1010101010--x--x-x-x-x-x-|

eb|--x--x-x-x-x-x--x--x-x-x-x-x--x--x-x-x-x-x--x--x-x-x-x-x-|
Bb|--7--7-7-7-7-7--8--8-8-8-8-8--7--7-7-7-7-7--8--8-8-8-8-8-|
Gb|--0--0-0-0-0-0--0--0-0-0-0-0--0--0-0-0-0-0--0--0-0-0-0-0-|
Db|--x--x-x-x-x-x--x--x-x-x-x-x--x--x-x-x-x-x--x--x-x-x-x-x-|
Ab|--7--7-7-7-7-7--7--7-7-7-7-7--7--7-7-7-7-7--7--7-7-7-7-7-|
Eb|--x--x-x-x-x-x--x--x-x-x-x-x--x--x-x-x-x-x--x--x-x-x-x-x-|

eb|--x--x-x-x-x-x--x--x-x-x-x-x--x--x-x-x-x-x~~-------------|
Bb|--7--7-7-7-7-7--8--8-8-8-8-8-10-1010101010~~-------------|
Gb|--0--0-0-0-0-0--0--0-0-0-0-0--0--0-0-0-0-0~~-------------|
Db|--x--x-x-x-x-x--x--x-x-x-x-x--0--0-0-0-0-0~~-------------|
Ab|--5--5-5-5-5-5--5--5-5-5-5-5--x--x-x-x-x-x~~-------------|
Eb|--x--x-x-x-x-x--x--x-x-x-x-x-10-1010101010~~-------------|

Verse:

eb|--x--x-x-x-x-x--x--x-x-x-x-x--x--x-x-x-x-x--x--x-x-x-x-x-|
Bb|--7--7-7-7-7-7--8--8-8-8-8-8--7--7-7-7-7-7--8--8-8-8-8-8-|
Gb|--0--0-0-0-0-0--0--0-0-0-0-0--0--0-0-0-0-0--0--0-0-0-0-0-|
Db|--x--x-x-x-x-x--x--x-x-x-x-x--x--x-x-x-x-x--x--x-x-x-x-x-|
Ab|--7--7-7-7-7-7--7--7-7-7-7-7--7--7-7-7-7-7--7--7-7-7-7-7-|
Eb|--x--x-x-x-x-x--x--x-x-x-x-x--x--x-x-x-x-x--x--x-x-x-x-x-|

eb|--x--x-x-x-x-x--x--x-x-x-x-x--x--x-x-x-x-x--x--x-x-x-x-x-|
Bb|--7--7-7-7-7-7--8--8-8-8-8-8-10-1010101010--8--8-8-8-8-8-|
Gb|--0--0-0-0-0-0--0--0-0-0-0-0--0--0-0-0-0-0--0--0-0-0-0-0-|
Db|--x--x-x-x-x-x--x--x-x-x-x-x--0--0-0-0-0-0--x--x-x-x-x-x-|
Ab|--5--5-5-5-5-5--5--5-5-5-5-5--x--x-x-x-x-x--5--5-5-5-5-5-|
Eb|--x--x-x-x-x-x--x--x-x-x-x-x-10-1010101010--x--x-x-x-x-x-|

A Front Page F**k...
eb|--x--x-x-x-x-x--x~~|
Bb|--7--7-7-7-7-7--8~~|
Gb|--0--0-0-0-0-0--0~~|
Db|--x--x-x-x-x-x--x~~|
Ab|--7--7-7-7-7-7--7~~|
Eb|--x--x-x-x-x-x--x~~|

For This Month...
eb|--x--x-x-x-x-x--x--x-x-x-x-x--x--x-x-x-x-x--x--x-x-x-x-x-|
Bb|--7--7-7-7-7-7--8--8-8-8-8-8-10-1010101010--8--8-8-8-8-8-|
Gb|--0--0-0-0-0-0--0--0-0-0-0-0--0--0-0-0-0-0--0--0-0-0-0-0-|
Db|--x--x-x-x-x-x--x--x-x-x-x-x--0--0-0-0-0-0--x--x-x-x-x-x-|
Ab|--5--5-5-5-5-5--5--5-5-5-5-5--x--x-x-x-x-x--5--5-5-5-5-5-|
Eb|--x--x-x-x-x-x--x--x-x-x-x-x-10-1010101010--x--x-x-x-x-x-|

Continue Verse...

Chorus:

eb|---------------------------------------------------------|
Bb|---------------------------------------------------------|
Gb|--9--9-9-9-9-9-11-1111111111-12-1212121212-14-1414141414-|
Db|--x--x-x-x-x-x--x--x-x-x-x-x--x--x-x-x-x-x--x--x-x-x-x-x-|
Ab|--7--7-7-7-7-7--9--9-9-9-9-9-10-1010101010-12-1212121212-|
Eb|---------------------------------------------------------|

eb|---------------------------------------------------------|
Bb|---------------------------------------------------------|
Gb|-12-1212121212-11-1111111111-12-1212121212-11-1111111111-|
Db|--x--x-x-x-x-x--x--x-x-x-x-x--x--x-x-x-x-x--x--x-x-x-x-x-|
Ab|-10-1010101010--9--9-9-9-9-9-10-1010101010--9--9-9-9-9-9-|
Eb|---------------------------------------------------------|

eb|---------------------------------------------------------|
Bb|---------------------------------------------------------|
Gb|--9--9-9-9-9-9-11-1111111111-12-1212121212-14-1414141414-|
Db|--x--x-x-x-x-x--x--x-x-x-x-x--x--x-x-x-x-x--x--x-x-x-x-x-|
Ab|--7--7-7-7-7-7--9--9-9-9-9-9-10-1010101010-12-1212121212-|
Eb|---------------------------------------------------------|

eb|--------------------------------|
Bb|--------------------------------|
Gb|-12-1212121212-11-1111111111-12~|
Db|--x--x-x-x-x-x--x--x-x-x-x-x--x~|
Ab|-10-1010101010--9--9-9-9-9-9-10~|
Eb|--------------------------------|

Verse, then Chorus Again
Chorus goes through till plucking

eb|-------0-----------0----------0---------0--------|
Bb|--------7-----------7----------7---------7-------|
Gb|---------0-----------0----------0---------0------|  X2
Db|-------------------------------------------------|
Ab|-------------------------------------------------|
Eb|--0-----------8-----------0-----------8----------|

eb|-------0-0-0-0---0-0-0-0---0-0-0-0---0-0-0-0-----|
Bb|--------7-7-7-7---7-7-7-7---7-7-7-7---7-7-7-7----|
Gb|---------0-0-0-0---0-0-0-0---0-0-0-0---0-0-0-0---|
Db|-------------------------------------------------|
Ab|-------------------------------------------------|
Eb|--0-------------8---------0---------8------------|

and regret this....

Distortion Starts and its just the chorus
screaming and all
this is an enjoyable song so yea enjoy it :)
pce out





Comments


Popular Dead And Divine tabs & chords
Something Ive Rehearsed Chords
To The Moon And Back Babe 1 Chords
To The Moon And Back, Babe Chords
Chemical Valley Tabs
Chemical Valley 1 Tabs
Creature Tabs
For Your Health Tabs
To The Moon And Back, Babe Tabs
Creature Ukulele
Something Ive Rehearsed Ukulele


Song lyrics



↑ Back to top | Tablatures and chords are parodies/interpretations of the original songs. You may use it for private study, scholarship, research or language learning purposes only
© 2014 AZChords.com Contact us | Privacy policy | DMCA | Add/correct tabs | Request tabs | Top 50 tabs