>
 >
Dancing With The Wind

Dancing With The Wind Guitar Tabs

Days Of The New - Dancing With The Wind chords, tabs, tablatures, lyrics

Guitar lessons | Add/correct | Request | Top 50 tabs Artists:  A B C D E F G H I J K L M N O P Q R S T U V W X Y Z 0-9

Dancing With The Wind Guitar Tabs – Days Of The New

CD, Sheet music, Poster

Do you like Dancing With The Wind? Share with your friends now
Tabs
TUNING: D-A-D-A-D-F (half step down)

[piezo strings intro]
-"i'm stuck in a daze...."

arranged for guitar:

E-----------------------------------------------------------------------|
Db-7-7-7-5-7-5-8-8-8-7-8-7-7-7------------------------------------------|
Ab-----------------------------8-8-8-10-10-10-7-7-7---------------------|
Db-7-7-7-5-7-5-8-8-8-7-8-7-7-7------------------------------------------|
Ab-----------------------------8-8-8-10-10-10-7-7-7---------------------|
Db----------------------------------------------------------------------|


E-----------------------------------------------------------------------|
Db-7-7-7-5-7-5-8-8-8-7-8-7-7-7------------------------------------------|
Ab-----------------------------8-8-8-7----------------------------------|
Db-7-7-7-5-7-5-8-8-8-7-8-7-7-7------------------------------------------|
Ab-----------------------------8-8-8-7----------------------------------|
Db----------------------------------------------------------------------|


[verse riff 1]
-"stuck on your beliefs...won't you sell me a reason..."


E----0--------0-----0---------------|
Db--0----------0---0---0--0--0------|
Ab-0---------0--0-0---0--0--0-------|
Db----5-7-5-8----8---3--5--2--------|
Ab----------------------------------|
Db----------------------------------|


E----0--------0-----0---------------|
Db--0----------0---0---0--0---------|
Ab-0---------0--0-0---0--0----------|
Db----5-7-5-8----8---3--2-----------|
Ab----------------------------------|
Db----------------------------------|

[SYMPHONY]-0:49
-"Dancing...with the wind...."

{BRASS}
progression: (D,A#,C,G) [2x] *compensated for the tuning*
or technically, (Db,A,B,Gb), since it's a half step down tuning.

arranged for guitar:

E---------0---------------------|
Db-0------0------2------0-------|
Ab-5------1------3------x-------|  [2x]
Db-0------0------2------5-------|
Ab-5------1------3------5-------|
Db-0--------------------5-------|
  (D)    (A#)   (C)    (G)

{STRINGS}
progression: (D,F,C,G,A...F,C,A)
*compensated for half step down tuning differential*

arranged for guitar:

E---------0----------------------0------------------------|
Db-0------3------2------5--7-----3------2------2----------|
Ab-5------0------3------5--7-----0------3------0----------|
Db-0------3------2------5--7-----3------2------2----------|
Ab-5-------------3----------------------3------0----------|
Db--------------------------------------------------------|
  (D)    (F)    (C)    (G)(A)   (F)    (C)    (A)

{BRASS FILL}
-"somewhere there is a soul waiting for you....to....die"

arranged for guitar:

E--------------------------------------------|
Db--7-5-3-5-3-2-3-2-0-2-3-2-0---------0------|
Ab--7-5-3-5-3-2-3-2-0-2-3-2-0----0----0------|
Db--7-5-3-5-3-2-3-2-0-2-3-2-0----2----0------|
Ab-------------------------------0-----------|
Db-------------------------------------------|



[verse riff 2]
-"do you hear them sing?..."


E----0-----0------0-----0-------------|
Db------0-----0--0-------0------------|
Ab--0--0--0--0--0--0-1-0--------------|   [3x]
Db-0--2--3----------------------------|
Ab----------3--1------1---1-3---------|
Db------------------------------------|


E---------0--------0-------------------0--------|
Db-------0--2----0---2----0---0------0-----2----|
Ab------0--0---0--0-0-------0---0-----0--0------|
Db----------------------------------------------|
Ab-0-1-0-----------------0---0----0-------------|
Db----------------------------------------------|


[CHOIR]
arranged for guitar:

{Male}

E-----------------------------------------------------------------------|
Db----------------------------------------------------------------------|
Ab----------------------------------------------------------------------|
[2x]
Db-7-7---5-7---8-8---10-8---7-7---3-3---5-5---2-2-2---------------------|
Ab-7-7---5-7---8-8---10-8---7-7---3-3---5-5---2-2-2---------------------|
Db-7-7---5-7---8-8---10-8---7-7---3-3---5-5---2-2-2---------------------|

{Female}

E-----------------------------------------------------------------------|
Db-7-7---5-7---8-8---10-8---7-7---3-3---5-5---2-2-2---------------------|
Ab-7-7---5-7---8-8---10-8---7-7---3-3---5-5---2-2-2---------------------|
[2x]
Db-7-7---5-7---8-8---10-8---7-7---3-3---5-5---2-2-2---------------------|
Ab----------------------------------------------------------------------|
Db----------------------------------------------------------------------|

[SYMPHONY part 2]-3:06

{STRINGS}
progression is: (D,A#,C,B)
*compensated for half step down tuning differential*

arranged for guitar:

E------------0--------------------|
Db----0------0------2-------------|
Ab----5------1------3------2------|  [4x]
Db----0------0------2------4------|
Ab----5------1------3------2------|
Db----0---------------------------|
     (D)    (A#)   (C)    (B)



[fast riff 1]
you will need to pick this EXTREMLEY fast.

E---------------------------------------------------------------------------|
Db-----0-0------0-0----0-0------0-0----0-0------0-0----0-0------------------|
Ab----0-0------0-0----0-0------0-0----0-0------0-0----0-0---3/5-------------|
Db--------3/5-------------3/5-------------3/5---------------5/7-------------|
Ab----------------------------------------------------------3/5--3p0--------|
Db-0---------------0---------------0---------------0-----------------0------|


E------------------------------------------------------------------|
Db-----0-0------0-0----0-0------0-0----0-0------0-0----0-0---------|
Ab----0-0------0-0----0-0------0-0----0-0------0-0----0-0----------|
Db--------3/5-------------3/5-------------3/5-------------3/5------|
Ab-----------------------------------------------------------------|
Db-0---------------0---------------0---------------0---------------|


[heavy riff]

E-----------------------------------------------------------------------|
Db----------------------------------------------------------------------|
Ab----------------------------------------------------------------------|
Db-x-x---0--5-3-5-3-0--3h5--x-x--0--5-3-5-3-0--3h5--x-x-----------------|
Ab-x-x---0--5-3-5-3-0--3h5--x-x--0--5-3-5-3-0--3h5--x-x-----------------|
Db-x-x---0--5-3-5-3-0--3h5--x-x--0--5-3-5-3-0--3h5--x-x-----------------|

E-----------------------------------------------------------------------|
Db----------------------------------------------------------------------|
Ab----------------------------------------------------------------------|
Db--0--5-3-5-3-0--3h5--x-x--0--5-3-5-3-7-7-7-10-10-10-------------------|
Ab--0--5-3-5-3-0--3h5--x-x--0--5-3-5-3-7-7-7-10-10-10-------------------|
Db--0--5-3-5-3-0--3h5--x-x--0--5-3-5-3-7-7-7-10-10-10-------------------|


E-----------------------------------------------------------------------|
Db----------------------------------------------------------------------|
Ab----------------------------------------------------------------------|
Db--0--5-3-5-3-0--3h5--x-x--0--5-3-5-3-0--3h5--x-x----------------------|
Ab--0--5-3-5-3-0--3h5--x-x--0--5-3-5-3-0--3h5--x-x----------------------|
Db--0--5-3-5-3-0--3h5--x-x--0--5-3-5-3-0--3h5--x-x----------------------|


E---------------------------4-2-0-2-0-----------------------------------|
Db--------------------------0-0-0-0-0-2---------------------------------|
Ab--------------------------0-0-0-0-0-0---------------------------------|
Db--0--5-3-5-3-0--3h5--x-x----------------------------------------------|
Ab--0--5-3-5-3-0--3h5--x-x----------------------------------------------|
Db--0--5-3-5-3-0--3h5--x-x----------------------------------------------|


E-----------------------------------------------------------------------|
Db----------------------------------------------------------------------|
Ab----------------------------------------------------------------------|
Db--0--5-3-5-3-0--3h5--x-x--0--5-3-5-3-0--3h5--x-x----------------------|
Ab--0--5-3-5-3-0--3h5--x-x--0--5-3-5-3-0--3h5--x-x----------------------|
Db--0--5-3-5-3-0--3h5--x-x--0--5-3-5-3-0--3h5--x-x----------------------|


E-----------------------------------------------------------------------|
Db----------------------------------------------------------------------|
Ab----------------------------------------------------------------------|
Db--0--5-3-5-3-0--3h5--x-x--0--5-3-5-3-7-7-7-10-10-10/12----------------|
Ab--0--5-3-5-3-0--3h5--x-x--0--5-3-5-3-7-7-7-10-10-10/12----------------|
Db--0--5-3-5-3-0--3h5--x-x--0--5-3-5-3-7-7-7-10-10-10/12----------------|


E-----------------------------------------------------------------------|
Db----------------------------------------------------------------------|
Ab----------------------------------------------------------------------|
Db--0--5-3-5-3-0--3h5--x-x--0--5-3-5-3-0--3h5--x-x----------------------|
Ab--0--5-3-5-3-0--3h5--x-x--0--5-3-5-3-0--3h5--x-x----------------------|
Db--0--5-3-5-3-0--3h5--x-x--0--5-3-5-3-0--3h5--x-x----------------------|

E-----------------------------------------------------------------------|
Db----------------------------------------------------------------------|
Ab----------------------------------------------------------------------|
Db--0--5-3-5-3-0--3h5--x-x----------------------------------------------|
Ab--0--5-3-5-3-0--3h5--x-x----------------------------------------------|
Db--0--5-3-5-3-0--3h5--x-x----------------------------------------------|


[bridge riff]
-"i...see...the road...is getting longer..."


E-----0--------0---0--------------------|
Db---0-0---0-2----0-0-5/7---7--5--------|
Ab--0---0-0---0--0---------0--0---------|  [4x]
Db-0------------------------------------|
Ab-------3------------------------------|
Db--------------5---------8--7----------|


[solo]

E----------------------------------------|
Db-0-2-3-0-2-3-0-2-3-0-2-3-0-2-3/12------|
Ab---------------------------------------|
Db---------------------------------------|
Ab---------------------------------------|
Db---------------------------------------|
>>>>>>>>>>>volume swell>>>>>>>>>>>>>


E-----------------------------------------------------------------------|
Db-0-7-----5---3-------/7--7-5------------------------------------------|
Ab-----------------------------8-7-7/8-7-5------3-----7h8p7h8p7h8/17----|
Db---7-----5---3--------------------------------------------------------|
Ab----------------------------------------------------------------------|
Db---------------0------------------------------------------------------|


E-----------------------------------------------------------------------|
Db-10--10--10-14p10--10------10----10--10----2-2--------2h3p2-----------|
Ab---12--12--------12---10p12--8h10---7------3-3---------------5--/-----|
Db----------------------------------------------------------------------|
Ab----------------------------------------------------------------------|
Db----------------------------------------------------------------------|


E------------------11h12-14---------------------------------------------|
Db-12-14-14^-12------------12----12----10-------7-----------------------|
Ab----------------------------12----------10------7----7h8-7----3p0-3---|
Db----------------------------------------------------------------------|
Ab----------------------------------------------------------------------|
Db----------------------------------------------------------------------|


E--------0h3-2p0--------2-3-4--/7---4--7--------4h7-4h7-4---------------|
Db----0h2---------------------------------------------------------------|
Ab-0h3----------5-------------------------------------------------------|
Db----------------------------------------------------------------------|
Ab----------------------------------------------------------------------|
Db----------------------------------------------------------------------|


E--<7>-<7>-<7>-<7>-<7>-<7>-<7>-<7>-<7>-<7>-<7>---0-0-------------|
Db-<7>-<7>-<7>-<7>-<7>-<7>-<7>-<7>-<7>-<7>-<7>---0-0---2---------|
Ab-<7>-<7>-<7>-<7>-<7>-<7>-<7>-<7>-<7>-<7>-<7>---1-1---0---------|
Db-<7>-<7>-<7>-<7>-<7>-<7>-<7>-<7>-<7>-<7>-<7>---0-0---2---------|
Ab-<7>-<7>-<7>-<7>-<7>-<7>-<7>-<7>-<7>-<7>-<7>---1-1---0---------|
Db-<7>-<7>-<7>-<7>-<7>-<7>-<7>-<7>-<7>-<7>-<7>-------------------|

[end riff]

E-------------------------------------------------|
Db------------------------------------------------|
Ab------------------------------------------------|
Db------------------------------------------------|
Ab----0-3-0-----0-3-0-----0-3-0-3-0-3-5p3-5p3-----|
Db-0-5---5---0-5---5---0-5---5---5--3-5p3-5p3-----|

E-------------------------------------------------|
Db------------------------------------------------|
Ab------------------------------------------------|
Db------------------------------------------------|
Ab----0-3-0-----0-3-0-----0-3-0-3---3-4-5---------|
Db-0-5---5---0-5---5---0-5---5--------------------|





Comments


Popular Days Of The New tabs & chords
Freak Chords
Face Of The Earth Tabs
Fighting With Clay Tabs
I Think Tabs
Independant Slaves Tabs
Now Tabs
Red Tabs
The Down Town 1 Tabs
The Down Town 2 Tabs
What's Left For Me? Tabs


Song lyrics



↑ Back to top | Tablatures and chords are parodies/interpretations of the original songs. You may use it for private study, scholarship, research or language learning purposes only
© 2014 AZChords.com Contact us | Privacy policy | DMCA | Add/correct tabs | Request tabs | Top 50 tabs