» » »

Dayglo Abortions, I Killed Mommy Bass tabs (ver.1)

Artists:  A B C D E F G H I J K L M N O P Q R S T U V W X Y Z # 

I Killed Mommy Bass tabs (ver.1)

Dayglo Abortions Tabs
 Rating:
4/5 (4 votes)
I Killed Mommy lessons Tabs too difficult? Try these video lessons and learn fast
                Intro
G---------------------------|
D---------------------------|
A-5-------------------------|
E------3----5-5-5-5-5-5-5-5-|

Verse ("I Couldn't Stand..."
G---------------------------------|---------------------------------|
D---------------------------------|---------------------------------|
A-5-5-5-5-5-5-5-5-----------------|-5-5-5-5-5-5-5-5-----------------|
E-----------------3-3-3-3-5-5-5-5-|-----------------3-3-3-3-5-5-5-5-|

Pre-Chorus ("My daddy was a b**ch....")
G---------------------------------|---------------------------------|
D---------------------------------|---------------------------------|
A-2-2-2-2---------5-5-5-5---------|-2-2-2-2---------5-5-5-5---------|
E---------3-3-3-3---------5-5-5-5-|---------3-3-3-3---------5-5-5-5-|

Intro
G---------------------------|
D---------------------------|
A-5-------------------------|
E------3----5-5-5-5-5-5-5-5-|

Verse 2 ("I Kinda like my sister's friends..."
G---------------------------------|---------------------------------|
D---------------------------------|---------------------------------|
A-5-5-5-5-5-5-5-5-----------------|-5-5-5-5-5-5-5-5-----------------|
E-----------------3-3-3-3-5-5-5-5-|-----------------3-3-3-3-5-5-5-5-|

Pre-Chorus ("Knocked Her down...")
G---------------------------------|---------------------------------|
D---------------------------------|---------------------------------|
A-2-2-2-2---------5-5-5-5---------|-2-2-2-2---------5-5-5-5---------|
E---------3-3-3-3---------5-5-5-5-|---------3-3-3-3---------5-5-5-5-|

Chorus ("I Killed Mommy With...")
G-----------------|-----------------|-----------------|-----------------|
D-----------------|-----------------|-----------------|-----------------|
A-5-5-5-5---------|-5-5-5-5---------|-5-5-5-5---------|-----------------|
E---------7-7-5-5-|---------7-7-5-5-|---------7-7-5-5-|-3-3-3-3-5-5-5-5-|

Intro
G---------------------------|
D---------------------------|
A-5-------------------------|
E------3----5-5-5-5-5-5-5-5-|

Solo
G---------------------------------|---------------------------------|
D---------------------------------|---------------------------------|
A-5-5-5-5-5-5-5-5-----------------|-5-5-5-5-5-5-5-5-----------------|
E-----------------3-3-3-3-5-5-5-5-|-----------------3-3-3-3-5-5-5-5-|

G---------------------------------|---------------------------------|
D---------------------------------|---------------------------------|
A-2-2-2-2---------5-5-5-5---------|-2-2-2-2---------5-5-5-5---------|
E---------3-3-3-3---------5-5-5-5-|---------3-3-3-3---------5-5-5-5-|


Chorus
G-----------------|-----------------|-----------------|-----------------|
D-----------------|-----------------|-----------------|-----------------|
A-5-5-5-5---------|-5-5-5-5---------|-5-5-5-5---------|-----------------|
E---------7-7-5-5-|---------7-7-5-5-|---------7-7-5-5-|-3-3-3-3-5-5-5-5-|

Intro
G---------------------------|
D---------------------------|
A-5-------------------------|
E------3----5-5-5-5-5-5-5-5-|

Verse 3("I Couldn't Stand..."
G---------------------------------|---------------------------------|
D---------------------------------|---------------------------------|
A-5-5-5-5-5-5-5-5-----------------|-5-5-5-5-5-5-5-5-----------------|
E-----------------3-3-3-3-5-5-5-5-|-----------------3-3-3-3-5-5-5-5-|

Pre-Chorus ("My daddy was a b**ch....")
G---------------------------------|---------------------------------|
D---------------------------------|---------------------------------|
A-2-2-2-2---------5-5-5-5---------|-2-2-2-2---------5-5-5-5---------|
E---------3-3-3-3---------5-5-5-5-|---------3-3-3-3---------5-5-5-5-|

Chorus
G-----------------|-----------------|-----------------|-----------------|
D-----------------|-----------------|-----------------|-----------------|
A-5-5-5-5---------|-5-5-5-5---------|-5-5-5-5---------|-----------------|
E---------7-7-5-5-|---------7-7-5-5-|---------7-7-5-5-|-3-3-3-3-5-5-5-5-|

Outro
G---------------------------|---|
D---------------------------|---|
A-5-------------------------|-5-|
E------3----5-5-5-5-5-5-5-5-|---|
            
Submit corrections

comments powered by Disqus
↑ Back to top | Dayglo Abortions Bass for I Killed Mommy. Lyrics for acoustic guitar and electric guitar. Tablatures and chords are parodies/interpretations of the original songs. You may use it for private study, scholarship, research or language learning purposes only