» » »

I Killed Mommy Tabs (ver.1)

Artists:  A B C D E F G H I J K L M N O P Q R S T U V W X Y Z # 

I Killed Mommy Tabs (ver.1)

Dayglo Abortions
Rating:
5/5 (1 vote)

Tabs too difficult? Try these video lessons and learn fast.
                Intro
E---------------------------|
B---------------------------|
G-7-------------------------|
D-7----5----7-7-7-7-7-7-7-7-|
A-5----5----7-7-7-7-7-7-7-7-|
E------3----5-5-5-5-5-5-5-5-|

Verse ("I Couldn't Stand..."
E---------------------------------|---------------------------------|
B---------------------------------|---------------------------------|
G-7-7-7-7-7-7-7-7-----------------|-7-7-7-7-7-7-7-7-----------------|
D-7-7-7-7-7-7-7-7-5-5-5-5-7-7-7-7-|-7-7-7-7-7-7-7-7-5-5-5-5-7-7-7-7-|
A-5-5-5-5-5-5-5-5-5-5-5-5-7-7-7-7-|-5-5-5-5-5-5-5-5-5-5-5-5-7-7-7-7-|
E-----------------3-3-3-3-5-5-5-5-|-----------------3-3-3-3-5-5-5-5-|

Pre-Chorus ("My daddy was a b**ch....")
E---------------------------------|---------------------------------|
B---------------------------------|---------------------------------|
G-4-4-4-4---------7-7-7-7---------|-4-4-4-4---------7-7-7-7---------|
D-4-4-4-4-5-5-5-5-7-7-7-7-7-7-7-7-|-4-4-4-4-5-5-5-5-7-7-7-7-7-7-7-7-|
A-2-2-2-2-5-5-5-5-5-5-5-5-7-7-7-7-|-2-2-2-2-5-5-5-5-5-5-5-5-7-7-7-7-|
E---------3-3-3-3---------5-5-5-5-|---------3-3-3-3---------5-5-5-5-|

Intro
E---------------------------|
B---------------------------|
G-7-------------------------|
D-7----5----7-7-7-7-7-7-7-7-|
A-5----5----7-7-7-7-7-7-7-7-|
E------3----5-5-5-5-5-5-5-5-|

Verse 2 ("I Kinda like my sister's friends..."
E---------------------------------|---------------------------------|
B---------------------------------|---------------------------------|
G-7-7-7-7-7-7-7-7-----------------|-7-7-7-7-7-7-7-7-----------------|
D-7-7-7-7-7-7-7-7-5-5-5-5-7-7-7-7-|-7-7-7-7-7-7-7-7-5-5-5-5-7-7-7-7-|
A-5-5-5-5-5-5-5-5-5-5-5-5-7-7-7-7-|-5-5-5-5-5-5-5-5-5-5-5-5-7-7-7-7-|
E-----------------3-3-3-3-5-5-5-5-|-----------------3-3-3-3-5-5-5-5-|

Pre-Chorus ("Knocked Her down...")
E---------------------------------|---------------------------------|
B---------------------------------|---------------------------------|
G-4-4-4-4---------7-7-7-7---------|-4-4-4-4---------7-7-7-7---------|
D-4-4-4-4-5-5-5-5-7-7-7-7-7-7-7-7-|-4-4-4-4-5-5-5-5-7-7-7-7-7-7-7-7-|
A-2-2-2-2-5-5-5-5-5-5-5-5-7-7-7-7-|-2-2-2-2-5-5-5-5-5-5-5-5-7-7-7-7-|
E---------3-3-3-3---------5-5-5-5-|---------3-3-3-3---------5-5-5-5-|

Chorus ("I Killed Mommy With...")
E-----------------|-----------------|-----------------|-----------------|
B-----------------|-----------------|-----------------|-----------------|
G-7-7-7-7---------|-7-7-7-7---------|-7-7-7-7---------|-----------------|
D-7-7-7-7-9-9-7-7-|-7-7-7-7-9-9-7-7-|-7-7-7-7-9-9-7-7-|-5-5-5-5-7-7-7-7-|
A-5-5-5-5-9-9-7-7-|-5-5-5-5-9-9-7-7-|-5-5-5-5-9-9-7-7-|-5-5-5-5-7-7-7-7-|
E---------7-7-5-5-|---------7-7-5-5-|---------7-7-5-5-|-3-3-3-3-5-5-5-5-|

Intro
E---------------------------|
B---------------------------|
G-7-------------------------|
D-7----5----7-7-7-7-7-7-7-7-|
A-5----5----7-7-7-7-7-7-7-7-|
E------3----5-5-5-5-5-5-5-5-|

Behind Solo
E---------------------------------|---------------------------------|
B---------------------------------|---------------------------------|
G-7-7-7-7-7-7-7-7-----------------|-7-7-7-7-7-7-7-7-----------------|
D-7-7-7-7-7-7-7-7-5-5-5-5-7-7-7-7-|-7-7-7-7-7-7-7-7-5-5-5-5-7-7-7-7-|
A-5-5-5-5-5-5-5-5-5-5-5-5-7-7-7-7-|-5-5-5-5-5-5-5-5-5-5-5-5-7-7-7-7-|
E-----------------3-3-3-3-5-5-5-5-|-----------------3-3-3-3-5-5-5-5-|

E---------------------------------|---------------------------------|
B---------------------------------|---------------------------------|
G-4-4-4-4---------7-7-7-7---------|-4-4-4-4---------7-7-7-7---------|
D-4-4-4-4-5-5-5-5-7-7-7-7-7-7-7-7-|-4-4-4-4-5-5-5-5-7-7-7-7-7-7-7-7-|
A-2-2-2-2-5-5-5-5-5-5-5-5-7-7-7-7-|-2-2-2-2-5-5-5-5-5-5-5-5-7-7-7-7-|
E---------3-3-3-3---------5-5-5-5-|---------3-3-3-3---------5-5-5-5-|

Chorus
E-----------------|-----------------|-----------------|-----------------|
B-----------------|-----------------|-----------------|-----------------|
G-7-7-7-7---------|-7-7-7-7---------|-7-7-7-7---------|-----------------|
D-7-7-7-7-9-9-7-7-|-7-7-7-7-9-9-7-7-|-7-7-7-7-9-9-7-7-|-5-5-5-5-7-7-7-7-|
A-5-5-5-5-9-9-7-7-|-5-5-5-5-9-9-7-7-|-5-5-5-5-9-9-7-7-|-5-5-5-5-7-7-7-7-|
E---------7-7-5-5-|---------7-7-5-5-|---------7-7-5-5-|-3-3-3-3-5-5-5-5-|

Intro
E---------------------------|
B---------------------------|
G-7-------------------------|
D-7----5----7-7-7-7-7-7-7-7-|
A-5----5----7-7-7-7-7-7-7-7-|
E------3----5-5-5-5-5-5-5-5-|

Verse 3("I Couldn't Stand..."
E---------------------------------|---------------------------------|
B---------------------------------|---------------------------------|
G-7-7-7-7-7-7-7-7-----------------|-7-7-7-7-7-7-7-7-----------------|
D-7-7-7-7-7-7-7-7-5-5-5-5-7-7-7-7-|-7-7-7-7-7-7-7-7-5-5-5-5-7-7-7-7-|
A-5-5-5-5-5-5-5-5-5-5-5-5-7-7-7-7-|-5-5-5-5-5-5-5-5-5-5-5-5-7-7-7-7-|
E-----------------3-3-3-3-5-5-5-5-|-----------------3-3-3-3-5-5-5-5-|

Pre-Chorus ("My daddy was a b**ch....")
E---------------------------------|---------------------------------|
B---------------------------------|---------------------------------|
G-4-4-4-4---------7-7-7-7---------|-4-4-4-4---------7-7-7-7---------|
D-4-4-4-4-5-5-5-5-7-7-7-7-7-7-7-7-|-4-4-4-4-5-5-5-5-7-7-7-7-7-7-7-7-|
A-2-2-2-2-5-5-5-5-5-5-5-5-7-7-7-7-|-2-2-2-2-5-5-5-5-5-5-5-5-7-7-7-7-|
E---------3-3-3-3---------5-5-5-5-|---------3-3-3-3---------5-5-5-5-|

Chorus
E-----------------|-----------------|-----------------|-----------------|
B-----------------|-----------------|-----------------|-----------------|
G-7-7-7-7---------|-7-7-7-7---------|-7-7-7-7---------|-----------------|
D-7-7-7-7-9-9-7-7-|-7-7-7-7-9-9-7-7-|-7-7-7-7-9-9-7-7-|-5-5-5-5-7-7-7-7-|
A-5-5-5-5-9-9-7-7-|-5-5-5-5-9-9-7-7-|-5-5-5-5-9-9-7-7-|-5-5-5-5-7-7-7-7-|
E---------7-7-5-5-|---------7-7-5-5-|---------7-7-5-5-|-3-3-3-3-5-5-5-5-|

Outro
E---------------------------|---|
B---------------------------|---|
G-7-------------------------|-7-|
D-7----5----7-7-7-7-7-7-7-7-|-7-|
A-5----5----7-7-7-7-7-7-7-7-|-5-|
E------3----5-5-5-5-5-5-5-5-|---|
            
Tabs too difficult? Try these video lessons and learn fast.




comments powered by Disqus
↑ Back to top | Tablatures and chords are parodies/interpretations of the original songs. You may use it for private study, scholarship, research or language learning purposes only