» » »

How He Loves Tabs (ver.1)

Artists:  A B C D E F G H I J K L M N O P Q R S T U V W X Y Z # 

How He Loves Tabs (ver.1)

David Crowder Band
Rating:
0/5 (0 votes)

Hard to play? Try these video lessons and learn fast.
                I love this song. This is how my band plays it and it sounds just like David 
Crowder Band plays it. It is very accurate. Please rate. 

Electric Guitar Part 1:
Chords:                    C         Am        G         F
Electric Guitar: E---------8s7s0-----8s7s0-----8s7s0-----8s7s0------| 
                 B----------------8---------8---------8---------8---|
                 G--------------------------------------------------|
                 D--------------------------------------------------|
                 A--------------------------------------------------|
                 E--------------------------------------------------|


Play Bass part throughout the whole song.
Chords:             C        Am      G        F
Bass Guitar: G------------------------------------|
             D------------------------------------|
             A------3--------0--------------------|
             E------------------------3--------1--|

Verse 1
C
He is jealous for me
Am
Loves like a hurricane I am a tree
G                                          F
Bending beneath the weight of his wind and mercy
C
When all of a sudden
                      Am
I am unaware of these afflictions eclipsed by glory
      G
And I realize just how beautiful You are
        F
And how great Your affections are for me

Pre Chorus:

    C                   Am
And oh how He loves us oh
          G
Oh how He loves us
                F
How He loves us all

Electric Guitar Part 1
    C           Am
E---8s7s0-----8s7s0-------|
B------------8-------8----|
G-------------------------|
D-------------------------|
A-------------------------|
E-------------------------|

Electric Guitar Part 2: Play this throughout the rest of the song.

E-8---8-----7---7-----8---8-----10---10-|
B---8---------8---------8----------8----|
G---------------------------------------|
D---------------------------------------|
A---------------------------------------|
E---------------------------------------|

C
He is jealous for me
Am
Loves like a hurricane I am a tree
G                                          F
Bending beneath the weight of his wind and mercy
C
When all of a sudden
                      Am
I am unaware of these afflictions eclipsed by glory
      G
And I realize just how beautiful You are
        F
And how great Your affections are for me

Chorus

C
He loves us
          Am
Oh how He loves us
          G
Oh how He loves us
          F
Oh how He loves

Verse 2

C
We are His portion and He is our prize
Am
Drawn to redemption by the grace in His eyes
G                               F
If grace is an ocean we’re all sinking
C
So Heaven meets earth like an unforeseen kiss
Am
And my heart turns violently inside of my chest
G
I don’t have time to maintain these regrets
F
When I think about the way

Pre chorus

    C                   Am
And oh how He loves us oh
          G
Oh how He loves us
                F
How He loves us all


Chorus
         C
Yeah He loves us
          Am
Oh how He loves us
          G
Oh how He loves us
           F
Oh how He loves
         C
Yeah He loves us
          Am
Oh how He loves us
          G
Oh how He loves us
          F           C
Oh how He loves us oh
            
Hard to play? Try these video lessons and learn fast. | Correct




comments powered by Disqus
↑ Back to top | Tablatures and chords are parodies/interpretations of the original songs. You may use it for private study, scholarship, research or language learning purposes only