» » »

Digging A Ditch Tabs (ver.1)

Artists:  A B C D E F G H I J K L M N O P Q R S T U V W X Y Z # 

Digging A Ditch Tabs (ver.1)

Dave Matthews Band
Rating:
0/5 (0 votes)

Hard to play? Try these video lessons and learn fast.
                Intro -
-----------------------------------------------------------|
-----------------------------------------------------------|
-----4p2---------2--2--------------------------------------|
-------------0---0--0--0-----------5----5--5-------5----5--|
------------------------------3----3------------3----------|
-3---------------------------------------------------------|
 

Verse/Chorus – Dave uses a fill he sometimes, but not often
------------------------------------------------------|
------------------------------------------------------|
------------------------------------------------------|
-5----5---5--5---5--5-----5---5-----5---5------5---5--|
-5----5---5--5---5--5-----3---3-----3-------3---------|
-3----3---3--3---3--3---------------------------------|
                                   [-fill goes here-]

Fill - 
-----------------------------|
-----------------------------|
------5-----4----------------|
-2/3-----2-------------5--0--|
---------------2-------------|
-----------------------------|


Bridge – (strange kind of rhythm here, work on it)
-----------------------------------------------------------|
-----------3----------------------3---------------------1--|
-----------0-------------------0------------------------0--|
------4----4---3------------4--------3--------------2------|
-5----------------------5-----------------------3----------|
-----------------------------------------------------------|
            
Hard to play? Try these video lessons and learn fast. | Correct




comments powered by Disqus
↑ Back to top | Tablatures and chords are parodies/interpretations of the original songs. You may use it for private study, scholarship, research or language learning purposes only