>
 >
Baby Blue

Baby Blue Guitar Tabs

Dave Matthews Band - Baby Blue chords, tabs, tablatures, lyrics

Guitar lessons | Add/correct | Request | Top 50 tabs Artists:  A B C D E F G H I J K L M N O P Q R S T U V W X Y Z 0-9

Baby Blue Guitar Tabs – Dave Matthews Band

CD, Sheet music, Poster

Do you like Baby Blue? Share with your friends now
TabsTabs v2Tabs v3Tabs v4
I pulled this from a dmbtabs.com post.
I play it 0h2 2h4 4....and it sounds like he hits the open g in between riffs.

Dave Matthews Band
My Baby Blue

New postby CANADIA15 on Sun May 24, 2009 10:29 am
My Baby Blue
***CAPO ON 8th FRET***
(Dave plays with 12-string guitar)

INTRO

Code: Select all
        e|------------------------------------------------------|
        B|------------------------------------------------------|
        G|-----------0-------------0--------------0-------------|
        D|--0h2-2-4-4-----0h2-2-4-4------0h2-2-4-4--------------|
        A|-------------3-------------2------------------0-2-----|
        E|-------------------------------------------2-3----0---|



VERSE

Code: Select all
        e|---------------------------------|
        B|--------------3--3---------------|
        G|-----------0--0------------------|
        D|--0h2-2-4-4---2--0---------------|
        A|--------------3--2------0-2------|
        E|--------------------2-3-----0----|


"And you forever.... my baby...You will...

        e|-------------------------------------------|--------------|
        B|---------------3---3--------3--3--3--3--3--|--3--3--3--3--|
        G|---------------2---0--------0--0--0--0--0--|--0--0--0--0--|
        D|---------------0---0--------0--2--0--0--2--|--2--0--0--2--| x3
        A|-----2-3-----------2---0-2--2--2--X--2--3--|--2--X--2--3--|
        E|--2-3----1--0--2---3--------------3--------|-----3--------|



"You're my baby blue."


        e|------------|
        B|------------|
        G|------------| then back to VERSE
        D|------------|
        A|----0-2-----|
        E|-2-3----0---|



Ending: In your blue, blue eyes. You and me forever."

        e|----------------------------|
        B|--3--3----------------------|
        G|--0--0----------------------|
        D|--2--0----------------------|
        A|--3--2------2-3-------------|
        E|--------2-3-----1---0---3---|





Comments


Popular Dave Matthews Band tabs & chords
Satellite Bass Tabs
Belly Full Chords
Satellite Chords
American Baby 3 Tabs
Bar Tender Tabs
Dream Of Our Fathers Tabs
Dreams Of Our Fathers 2 Tabs
In My Life Tabs
Minarets 1 Tabs
So Damn Lucky 2 Tabs


Song lyrics



↑ Back to top | Tablatures and chords are parodies/interpretations of the original songs. You may use it for private study, scholarship, research or language learning purposes only
© 2014 AZChords.com Contact us | Privacy policy | DMCA | Add/correct tabs | Request tabs | Top 50 tabs