» » »

Screaming Infidelities Bass tabs (ver.1)

Artists:  A B C D E F G H I J K L M N O P Q R S T U V W X Y Z # 

Screaming Infidelities Bass tabs (ver.1)

Dashboard Confessional
Rating:
0/5 (0 votes)

Tabs too difficult? Try these video lessons and learn fast.
                Tuning: Db,Ab,Db,Gb

This sounds about right. Theres a few fills in there but they are pretty simple to figure out.
Watched the video for hours trying to figure this out.

Verse
Gb|--------------------------------------------------------|
Db|--------------------------------------------------------|
Ab|-5-5-5-5--5-5--5-5-5-5--5-5--2-2-2-3--3-3--3-3-3-3--3-3-|
Db|--------------------------------------------------------|

Gb|-------------------------------------------------------|
Db|-------------------------------------------------------|
Ab|----------------------------4-4-4-2--2-2--2-2-2-1--1-1-|
Db|-5-5-5-4--4-4--4-4-4-4--4-4----------------------------|

   Chorus
Gb|----------------------------------------------------------------|
Db|----------------------------------------------------------------|
Ab|--5--5-5-5--5-5-7--7-7-7--7-7-2--2-2-2--2-2---------------------|
Db|--------------------------------------------5--5-5-5--5-5-5-4-0-|

Gb|---------------------------------------------------------------|
Db|---------------------------------------------------------------|
Ab|----------2--2-2-2--2-2-0--0-0--0-0--0-0--0-0--0---------------|
Db|--0-0-0--------------------------------------------------------|

   Outro
Gb|-----------------------------------------------------|
Db|-----------------------------------------------------|
Ab|-----------------------------------------------------|
Db|-0--0-0--0-0--0-0--0-0--0--5--5-5--5-5--5-5--5-5--5--|

Gb|-----------------------------------------------------|
Db|-----------------------------------------------------|
Ab|-----------------------------------------------------|
Db|-2--2-2--2-2--2-2--2-2--2--5--5-5--5-5--5-5--5-5--5--|

Or you can play the Outro on the D-String... Or use a combination of both
            
Tabs too difficult? Try these video lessons and learn fast.




comments powered by Disqus
↑ Back to top | Tablatures and chords are parodies/interpretations of the original songs. You may use it for private study, scholarship, research or language learning purposes only