» » »

Dark Tranquillity, Undo Control Tabs (ver.1)

Artists:  A B C D E F G H I J K L M N O P Q R S T U V W X Y Z # 

Undo Control Tabs (ver.1)

Dark Tranquillity Tabs
Rating:
0/5 (0 votes)
Undo Control lessons Tabs too difficult? Try these video lessons and learn fast
                DARK TRANQUILLITY - UNDO CONTROL
                        From the Album PROJECTOR
                      Copyright 1999 CENTURY MEDIA

                          Version 1.1 - MAY '02

Corrections by: Martin Henriksson

This is an official transcription revised by Martin Henriksson!

For Questions, Comments, Newest Version, or Corrections contact





.  - palm mute                  /  - slide up to
\  - slide down to              ~  - vibrato             
h  - hammer on                  b  - bend 
p  - pull off                   Suffixes for bend    
ph - pinch harmonic             f - full bend    h - half bend
*  - see comment                r - release      t - tap bend
X  - percussion mute            ~ - vibrato bend
@  - slight palm mute           () - ghost note, sustained note

Tune to C# [C#,F#,B,E,G#,C#]

--UNDO CONTROL--

[Riff A] --Clean throughout--
[-------------------|-------------------]
[--/8-7-------------|---/8-10-7-7_8-----]
[*-sl---7-7_9-------|---sl-------h-----*]GTR I
[*---------h--------|------------------*]
[-------------------|-------------------]
[-------------------|-------------------]                                      
 
[Riff A.1] + Riff A 
[-------------------|-------------------]
[------8-------7----|-----3-------5-----]
[*---0---0---0---0--|---0---0---0---0--*]GTR II
[*------------------|------------------*] 
[--7-------5--------|-2-------3---------] 
[--^-------^--------|-^-------^---------]


[Riff A.2] --Clean throughout--
[------------------|--------------2----]
[--------------0---|-----3------3---3--]
[*---------0-----2-|---0---0----------*]
[*-----2-----2-----|------------------*]
[----2---2---------|-------------------]
[--0---------------|-3--------2--------]
   ^                 ^        ^
                                   [2tx]
[------------------|----3-------2------]
[--------------0---|--3---3-------3----]
[*---------0-----2-|----------4-------*]
[*-----2-----2-----|------------------*]
[----2---2---------|-------------------]
[--0---------------|-3------2----------]
   ^                 ^      ^

[Riff B]                           [2tx]
[----------------|---------------------]
[----------------|---------------------]
[*---------------|--------------------*]GTRS
[*---------------|--------------------*]I&II
[--2---5-2---5-2-|-5-2-2-2-2-2-2-2ph~--]
[--0---3-0---3-0-|-3-2-3-2-3-2-3-------]
   ^   . ^   . ^   .


Riff A.2 [3tx]
Riff B   [2tx]


[Riff B.1]*
[------------------------------|-------------------------------------------]
[------------------------------|-------------------------------------------]
[*-----------------------------|------------------------------------------*]GTR I
[*-----------------------------|------------------------------------------*]
[--2-2-2-2-2-2-2-5-2-2-2-2-2-5-|-5-2-2-2-2-2-2-2---------------------2ph~--]
[--0-0-0-0-0-0-0-3-0-0-0-0-0-3-|-3-0-0-0-0-0-0-0-------3-2-3-2-3-2-3-------]
     . . . . . .     . . . .         . . . . . .                    

--Let ring throughout--                                                                   
[------------------------------|-------------------------------------------]
[----------0-----------------0-|----------------0--------------------------]
[*-------0---0-------------0---|0-------------0---0-----------------------*]GTR II
[*-----2-------4---------2-----|--4---------2-------4---------------------*] 
[----2-----------2-----2-------|----2-----2-----------2---------------2ph~-]
[--0---------------3-0---------|------3-0---------------3-2-3-2-3-2-3------]

 _______________________________________________
[* = Second guitar is played in time with first.]
[_______________________________________________]


[Fill 1]
[----------|----------]
[----------|----------]
[*---------|---------*]GTRS
[*---------|---------*]I&II
[--2---5-2-|-5--------]
[--0---3-0-|-3--------]
   ^   . ^   .


[Riff C]
[---------------------------------|-----------------------------------]
[---------------------------------|-----------------------------------]
[*-------------4-2-----7-------4-2|-------------4-2-----7-------2244-*]GTR I
[*-----2---5-------555---5-444----|-----2---5-------555---5-4-4------*]
[---------------------------------|-----------------------------------]
[--0-0---0---0--------------------|-000---0---0-----------------------]
   . .   .   .     ...     ...      ...   .   .     ...     . .  
                                                                  [2tx]
[---------------------------------|-----------------------------------]
[---------------------------------|-----------------------------------]
[*--------------------------------|----------------------------------*]GTR II
[*--------------------------------|----------------------------5ph---*]
[---------------------------------|-----------------------------------]
[--0-0-0-0-0-0-0-0-333-3-3-222-2-2|000-0-0-0-0-0-0-333-3-3-2-2--------]
   . . . . . . . . ... . . ... . . ... . . . . . . ... . . . .

                                                       
[Riff C.1] --Play twice--
[------------------------------|-----------------------------------]
[------------------------------|-----------------------------------]
[*-------4-2-----7-------4-2---|-------4-2-----7-------2-4--------*]GTR I
[*-2---5-----5-----5-4---------|-2---5-----5-----5-4--------------*]
[------------------------------|-----------------------------------]
[------------------------------|-----------------------------------]
 
[--7-7-7-7-7-7-7-7-3-3-3-3-----|---7-7-7-7-7-7-7-7-3-3-3-3---------]
[--8-8-8-8-8-8-8-8-3-3-3-3-----|---8-8-8-8-8-8-8-8-3-3-3-3---------]
[*-9-9-9-9-9-9-9-9-4-4-4-4-4(4)|---9-9-9-9-9-9-9-9-4-4-4-4-4-(4)--*]GTR II
[*-9---------------5-5-5-5-4(4)|-------------------5-5-5-5-4-(4)--*]
[--7-----------------------2(2)|---------------------------2-(2)---]
[------------------------------|-----------------------------------]
 
[------------------------------|-----------------------------------]
[------------------------------|-----------------------------------]
[*-------4-2-----7-------4-2---|-------4-2-----7-------4~---------*]GTR I
[*-2---5-----5-----5-4---------|-2---5-----5-----5-4--------------*]
[------------------------------|-----------------------------------]
[------------------------------|-----------------------------------]
 
[--7-7-7-7-7-7-7-7-3-3-3-3-----|---7-7-7-7-7-7-7-7-3-3-3-----------]
[--8-8-8-8-8-8-8-8-3-3-3-3-----|---8-8-8-8-8-8-8-8-3-3-3-----------]
[*-9-9-9-9-9-9-9-9-4-4-4-4-4(4)|---9-9-9-9-9-9-9-9-4-4-4-----4(4)-*]GTR II
[*-----------------5-5-5-5-4(4)|-------------------5-5-5-----4(4)-*]
[--------------------------2(2)|-------------------------2-2-2(2)--]
[------------------------------|-----------------------------------]
                                                         . .

Riff A + A.1 [1x]


[Riff D] --Clean--                           [16tx]
[-------3---------3-----|-----2---------2---------]
[---------5---------5---|-------3---------3-------]
[*----------4---------4-|---------4---------4----*]
[*---2----------2-------|---2---------2----------*]
[-----------------------|-------------------------]
[--0----------0---------|-0---------0-------------]
   ^          ^           ^         ^


[Fill 2]
[-------]
[-------]
[*-----*]GTRS
[*-----*]I&II
[--5-4--]
[--3-2--]
   . .


Riff B [2x]


[Riff B.2]                                                       [2tx]
[---------------------------------|----------------------------------]
[---------------------------------|----------------------------------]
[*--------------------------------|---------------------------------*]GTRS
[*---------------------------4----|---------------------------------*]I&II
[--2-------------5-2---------2--5-|-2-------------5-------------2ph~-]
[--0-0-0-00-00-0-3-0-0-0-00-----3-|-0-0-0-00-00-0-3-2-3-2-3-2-3------]
     . . .. .. .     . . ..           . . .. .. .


Riff C   [2tx]
Riff C.1 [2tx]


[Riff B.3]
[------------------------|-----------------------]
[------------------------|-----------------------]
[*-----------------------|----------------------*] GTRS
[*-----------------------|----------------------*] I&II
[--2-----5-2-----5--5-2--|--5-------------2ph~---]
[--0-----3-0-----3--3-0--|--3-2-3-2-3-2-3--------]
   ^     . ^     .  ^ ^     .
                           --Let ring--
[------------------------|-----------------------]
[------------------------|--------4_5-5---(5)----]
[*-----------------------|---------h------------*]GTRS
[*-----------------------|----------------------*]I&II
[--2-----5-2-----5-----5-|-2-(2)-----------------]
[--0-----3-0-----3-----3-|-0-(0)-----------------]
   ^     ^ ^     ^     ^   ^     
            
Submit corrections

comments powered by Disqus
↑ Back to top | Dark Tranquillity Tabs for Undo Control. Lyrics for acoustic guitar and electric guitar. Tablatures and chords are parodies/interpretations of the original songs. You may use it for private study, scholarship, research or language learning purposes only