>
 >
Undo Control

Undo Control Bass Tabs

Dark Tranquillity - Undo Control chords, tabs, tablatures, lyrics

Guitar lessons | Add/correct | Request | Top 50 tabs Artists:  A B C D E F G H I J K L M N O P Q R S T U V W X Y Z 0-9

Undo Control Bass Tabs – Dark Tranquillity

CD, Sheet music, Poster

Do you like Undo Control? Share with your friends now
Bass TabsTabs
Tune Down

E ||-------------------|------------------|--------------------------|
B ||-------------------|------------------|--------------------------|
F#||-------------------|------------------|--------------------------|
C#||--0----------------|------------------|--0--0--0--0--3--3--2--3--|


                                                                          
--------------------------|-------------------|--------------------------|
--------------------------|-------------------|--------------------------|
--------------------------|-------------------|--------------------------|
--7--7--7--7--8--8--5--3--|--0----------------|--2--3--3--2--2--0--0--0--|


                                                                   
-------------------|--------------------------|-------------------|
-------------------|-----------------------9--|-------------------|
-------------------|--------------------------|-------------------|
--0----------------|--2--0--0--0--5--3/-7-----|--0----------------|


                                                                          
--------------------------|-------------------|--------------------------|
--------------------------|-------------------|-----------------------9--|
--------------------------|-------------------|--------------------------|
--2--3--3--2--2--0--0--0--|--0----------------|--2--0--0--0--5--3/-7-----|


                                                                   
-------------------|--------------------------|-------------------|
-------------------|--------------------------|-------------------|
-------------------|--------------------------|-------------------|
--0----------------|--2--3--3--2--2--0--0--0--|--0----------------|


                                                           
------------------------------|---------------------------|
------------------9-----------|---------------------------|
----------------------5-9-5-7-|---------------------------|
--2--3--2--0--5-7---7---------|--0--0--0--0-0-0--0--0--0--|


                                                      
--------------------------|--------------------------|
--------------------------|--------------------------|
--------------------------|--------------------------|
--3----0--0--0--0-0-0--0--|--3----0--0--0--0-0-0--0--|


                                                                      
----------------------------|--12--------|---------------------------|
----------------------------|------------|---------------------------|
-------9--10--9--10--9--10--|------------|---------------------------|
--3-------------------------|------------|--0--0--0--0-0-0--0--0--0--|


                                                      
--------------------------|--------------------------|
--------------------------|--------------------------|
--------------------------|--------------------------|
--3----0--0--0--0-0-0--0--|--3----0--0--0--0-0-0--0--|


                                                              
----------------------------|--12--------|-------------------|
----------------------------|------------|-------------------|
-------9--10--9--10--9--10--|------------|-------------------|
--3-------------------------|------------|--0----------------|


                                                                          
--------------------------|-------------------|--------------------------|
--------------------------|-------------------|-----------------------9--|
--------------------------|-------------------|--------------------------|
--2--3--3--2--2--0--0--0--|--0----------------|--2--0--0--0--5--3/-7-----|


                                                                   
-------------------|--------------------------|-------------------|
-------------------|--------------------------|-------------------|
-------------------|--------------------------|-------------------|
--0----------------|--2--3--3--2--2--0--0--0--|--0----------------|


                                                                          
--------------------------|-------------------|--------------------------|
-----------------------9--|-------------------|--------------------------|
--------------------------|-------------------|--------------------------|
--2--0--0--0--5--3/-7-----|--0----------------|--2--3--3--2--2--0--0--0--|


                                                                               
-------------------|------------------------------|---------------------------|
-------------------|------------------9-----------|---------------------------|
-------------------|----------------------5-9-5-7-|---------------------------|
--0----------------|--2--3--2--0--5-7---7---------|--0--0--0--0-0-0--0--0--0--|


                                                      
--------------------------|--------------------------|
--------------------------|--------------------------|
--------------------------|--------------------------|
--3----0--0--0--0-0-0--0--|--3----0--0--0--0-0-0--0--|


                                                                      
----------------------------|--12--------|---------------------------|
----------------------------|------------|---------------------------|
-------9--10--9--10--9--10--|------------|---------------------------|
--3-------------------------|------------|--0--0--0--0-0-0--0--0--0--|


                                                      
--------------------------|--------------------------|
--------------------------|--------------------------|
--------------------------|--------------------------|
--3----0--0--0--0-0-0--0--|--3----0--0--0--0-0-0--0--|


                                                                     
----------------------------|--12--------|--------------------------|
----------------------------|------------|--------------------------|
-------9--10--9--10--9--10--|------------|--------------------------|
--3-------------------------|------------|--0--0--0--0--0--0--0--3--|


                                                                              
------------------------|--------------------------|-------------------------|
------------------------|--------------------------|-------------------------|
--------------2---------|--------------------------|-------------------------|
--0--0--0--0-------3----|--0--0--0--0--0--0--0--0--|--3----2--3--2--3--2--3--|


                                                                 
--12--------|--------------------------|------------------------|
------------|--------------------------|------------------------|
------------|--------------------------|--------------2---------|
------------|--0--0--0--0--0--0--0--3--|--0--0--0--0-------3----|


                                                                           
--------------------------|-------------------------|--12-----------------|
--------------------------|-------------------------|---------------------|
--------------------------|-------------------------|---------------------|
--0--0--0--0--0--0--0--0--|--3----2--3--2--3--2--3--|--------0------------|


                                                            
--------------------|-----------|--------------------------|
--------------------|-----------|--------------------------|
--------------------|-----------|--------------------------|
--3----0------------|--3--------|--0--7--0--7--0--7--0--7--|


                                                      
----------------------|------------------------------|
----------------------|------------------------------|
----------------------|------------------------------|
--7----3----5----7----|--0--7--0-7-10--0-7--10-0--7--|


                                                                             
--------------------------|--------------------------|----------------------|
--------------------------|--------------------------|----------------------|
--------------------------|--------------------------|----------------------|
--5--3--5--7--10----10----|--0--7--0--7--0--7--0--7--|--7----3----5----7----|


                                                                               
------------------------------|--------------------------|------|------|------|
------------------------------|--------------------------|------|------|------|
------------------------------|--------------------------|------|------|------|
--0--7--0-7-10--0-7--10-0--7--|--5--3--5--7--10----10----|------|------|------|


                                                                             
------|------|------|------|------|------|------|------|------|------|------|
------|------|------|------|------|------|------|------|------|------|------|
------|------|------|------|------|------|------|------|------|------|------|
------|------|------|------|------|------|------|------|------|------|------|


                                                                       
------|------|------|------|------|------|------|------|------|------||
------|------|------|------|------|------|------|------|------|------||
------|------|------|------|------|------|------|------|------|------||
------|------|------|------|------|------|------|------|------|------||





Comments


Popular Dark Tranquillity tabs & chords
Fabric Bass Tabs
Haven Bass Tabs
The Sun Fired Blanks Bass Tabs
There In Bass Tabs
A Closer End Tabs
Away, Delight, Away Tabs
Feast Of Burden Tabs
Insanity's Crescendo Tabs
Lost To Apathy Tabs
Rundown Tabs


Song lyrics



↑ Back to top | Tablatures and chords are parodies/interpretations of the original songs. You may use it for private study, scholarship, research or language learning purposes only
© 2014 AZChords.com Contact us | Privacy policy | DMCA | Add/correct tabs | Request tabs | Top 50 tabs