>
 >
Punish My Heaven

Punish My Heaven Bass Tabs

Dark Tranquillity - Punish My Heaven chords, tabs, tablatures, lyrics

Guitar lessons | Add/correct | Request | Top 50 tabs Artists:  A B C D E F G H I J K L M N O P Q R S T U V W X Y Z 0-9

Punish My Heaven Bass Tabs – Dark Tranquillity

CD, Sheet music, Poster

Do you like Punish My Heaven? Share with your friends now
Bass TabsTabs
Tune down

A#||------------------|----------------------|----------------------|
F#||------------------|----------------------|----------------------|
C#||------------------|----------------------|----------------------|
G#||------------------|-------------------2--|----3--2--------------|
D#||------------------|--0----2------3-------|------------5----2/---|


                                                   
----------------------|---------------------------|
----------------------|---------------------------|
----------------------|------------7--------------|
-------------------2--|----3--2------10-9-10-7----|
--0----2------3-------|---------------------------|


                                                                      
----------------------------------|----------------------------------|
----------------------------------|----------------------------------|
----------------------------------|----------------------------------|
----------------------------------|--2-2-2-2-------------------------|
--3-3-3-3-3-3-3-3-3-3-3-3-3-3-2-2-|----------0-0-0-0-0-0-0-0-0-0-2-2-|


                                                                      
----------------------------------|----------------------------------|
----------------------------------|----------------------------------|
----------------------------------|----------------------------------|
----------------------------------|--2-2-2-2-------------------------|
--3-3-3-3-3-3-3-3-3-3-3-3-3-3-2-2-|----------0-0-0-0-0-0-0-0-0-0-2-2-|


                                                                      
----------------------------------|----------------------------------|
----------------------------------|----------------------------------|
----------------------------------|--5-5-5-5-5-5-5-5-5-5-5-5-5-5-5-5-|
--7-7-7-7-7-7-7-7-7-7-7-7-7-7-7-7-|----------------------------------|
----------------------------------|----------------------------------|


                                       
--------------------------------------|
--------------------------------------|
--9-9-10-10-9-9-9-9-10-10-9-9-9-9-9-9-|
--------------------------------------|
--------------------------------------|


                                                                              
------------------13-13-12-12-10-10-12-12-|----------------------------------|
--9-9-9-9-9-9-9-9-------------------------|----------------------------------|
------------------------------------------|----------------------------------|
------------------------------------------|----------------------------------|
------------------------------------------|--3-3-3-3-3-3-3-3-3-3-3-3-3-3-2-2-|


                                                                      
----------------------------------|----------------------------------|
----------------------------------|----------------------------------|
----------------------------------|----------------------------------|
--2-2-2-2-------------------------|----------------------------------|
----------0-0-0-0-0-0-0-0-0-0-2-2-|--3-3-3-3-3-3-3-3-3-3-3-3-3-3-2-2-|


                                                                      
----------------------------------|----------------------------------|
----------------------------------|----------------------------------|
----------------------------------|----------7-7-------------7-7-----|
--2-2-2-2-------------------------|--5-5-8-8-----8-8-5-5-7-7-----7-7-|
----------0-0-0-0-0-0-0-0-0-0-2-2-|----------------------------------|


                                                                     
---------------------------------|----------------------------------|
---------------------------------|----------------------------------|
----------7-7--------------------|--0-0-8-8-8-8-5-5-5-5-7-7-7-7-7-7-|
--4-4-7-7-----7-7-8--7-8-7-5--4--|----------------------------------|
---------------------------------|----------------------------------|


                                                                      
----------------------------------|----------------------------------|
----------------------------------|----------------------------------|
--0-0-8-8-8-8-5-5-5-5-7-7-7-7-8-8-|----------------------------------|
----------------------------------|--5-5-5-5-5-5-5-5-3-3-3-3-3-3-3-3-|
----------------------------------|----------------------------------|


                                                                      
----------------------------------|----------------------------------|
----------------------------------|----------------------------------|
----------------------------------|----------7-7-------------7-7-----|
--5-5-5-5-5-5-5-5-3-3-3-3---------|--5-5-8-8-----8-8-5-5-7-7-----7-7-|
--------------------------0-0-0-0-|----------------------------------|


                                                             
---------------------------------|--------------------------|
---------------------------------|--------------------------|
----------7-7--------------------|--------7-----------7-----|
--4-4-7-7-----7-7-8--7-8-7-5--4--|--5--8-----8--5--7-----7--|
---------------------------------|--------------------------|


                                            
----------------------------|--------------|
----------------------------|--------------|
--7--5----------------------|--------------|
--------8--7--8-7-8-7-5--4--|--1---0-1--3--|
----------------------------|--------------|


                                          
|----------------------------------------|
|*--9-----9-----9-----9-----9--10--9--7--|
|------7-----7-----7-----7---------------|
|*---------------------------------------|
|----------------------------------------|


                                             
-------------------------------------------||
-----------------------7-----7--10--9--7--*||
--10-----10-----10-------------------------||
------8------8------8-----8---------------*||
-------------------------------------------||


                                           
------------------------------------------|
-----------------------7-----7--10--9--7--|
--10-----10-----10------------------------|
------8------8------8-----8---------------|
------------------------------------------|


                                             
--10-----10--8------------------------------|
------7---------10--9--10-----10--7--9--10--|
---------------------------8----------------|
--------------------------------------------|
--------------------------------------------|


                                              
----------------------11--10-----10--8-------|
--12------12--12--14----------7-----------9--|
------10----------------------------------9--|
------------------------------------------7--|
---------------------------------------------|


                                                                      
--------------------------------------|------------------------------|
--------------------------------------|------------------------------|
-----------------8-----------------7--|--7-----7--7--5---------------|
--------------5-----------------4-----|-----5-----------8--8----7----|
--6--6--6--6--------5--5--5--5--------|------------------------------|


                                                             
-------------------|-------------------|--------------------|
-------------------|-------------------|--7--------5--------|
-------------------|-------------------|--7--------5--------|
--5----------------|--5----------------|--5--------3--------|
-------------------|-------------------|--------------------|


                                                               
---------------------------|----------------------------------|
--7------------------------|----------------------------------|
---------------------------|--0-0-8-8-8-8-5-5-5-5-7-7-7-7-7-7-|
--5--------3-5-5-5-5-3-1-0-|----------------------------------|
---------------------------|----------------------------------|


                                                                      
----------------------------------|----------------------------------|
----------------------------------|----------------------------------|
--0-0-8-8-8-8-5-5-5-5-7-7-7-7-8-8-|----------------------------------|
----------------------------------|--5-5-5-5-5-5-5-5-3-3-3-3-3-3-3-3-|
----------------------------------|----------------------------------|


                                                                      
----------------------------------|----------------------------------|
----------------------------------|----------------------------------|
----------------------------------|----------7-7-------------7-7-----|
--5-5-5-5-5-5-5-5-3-3-3-3---------|--5-5-8-8-----8-8-5-5-7-7-----7-7-|
--------------------------0-0-0-0-|----------------------------------|


                                                          
---------------------------------|-----------------------|
---------------------------------|-----------------------|
----------7-7--------------------|-----------------------|
--4-4-7-7-----7-7-8--7-8-7-5--4--|--5------------7-8-7-8-|
---------------------------------|-----------------------|


                                                                      
------------------------|--------------------|-----------------------|
------------------------|--------------------|-----------------------|
------------------------|--------------------|-----------------------|
----------------7-8-7-8-|--5-----------------|-----------------------|
--8--------5------------|---------------8----|--8--10--10------------|


                                                                        
----------------------------------|------------------------------------|
----------------------------------|------------------------------------|
----------------------------------|------------------------------------|
--5-5-5-5-5-5-5-5-5-5-5-5-5-5-5-5-|--7-7-7-7-7-7-7-7-7-7-7-7-10-10-9-9-|
----------------------------------|------------------------------------|


                                                                        
----------------------------------|------------------------------------|
----------------------------------|------------------------------------|
----------------------------------|------------------------------------|
--5-5-5-5-5-5-5-5-5-5-5-5-5-5-5-5-|--7-7-7-7-7-7-7-7-7-7-7-7-10-10-9-9-|
----------------------------------|------------------------------------|


                                                                        
----------------------------------|------------------------------------|
----------------------------------|------------------------------------|
----------------------------------|------------------------------------|
--5-5-5-5-5-5-5-5-5-5-5-5-5-5-5-5-|--7-7-7-7-7-7-7-7-7-7-7-7-10-10-9-9-|
----------------------------------|------------------------------------|


                                                                        
----------------------------------|------------------------------------|
----------------------------------|------------------------------------|
----------------------------------|------------------------------------|
--5-5-5-5-5-5-5-5-5-5-5-5-5-5-5-5-|--7-7-7-7-7-7-7-7-7-7-7-7-10-10-9-9-|
----------------------------------|------------------------------------|


                                                                      
-----------------------|------------------------|--------------------|
-----------------------|------------------------|--------------------|
-----------------------|------------------------|--------------------|
--5------------7-8-7-8-|----------------7-8-7-8-|--5-----------------|
-----------------------|--8--------5------------|---------------8----|


                                                           
-----------------------|----------------------------------|
-----------------------|----------------------------------|
-----------------------|--7-7-7-7-7-7-7-7-7-7-7-7-7-7-7-7-|
-----------------------|----------------------------------|
--8--10--10------------|----------------------------------|


                                                                      
----------------------------------|----------------------------------|
----------------------------------|----------------------------------|
----------------------------------|--7-7-7-7-7-7-7-7-7-7-7-7-7-7-7-7-|
--7-7-7-7-7-7-7-7-7-7-7-7-7-7-7-7-|----------------------------------|
----------------------------------|----------------------------------|


                                                                      
----------------------------------|----------------------------------|
----------------------------------|----------------------------------|
----------------------------------|--7-7-7-7-7-7-7-7-7-7-7-7-7-7-7-7-|
--7-7-7-7-7-7-7-7-7-7-7-7-7-7-7-7-|----------------------------------|
----------------------------------|----------------------------------|


                                                  
----------------------------------|--------------|
----------------------------------|--------------|
----------------------------------|--------------|
--7-7-7-7-7-7-7-7-7-7-7-7-7-7-7-7-|--1---0-1--3--|
----------------------------------|--------------|


                                          
|----------------------------------------|
|*--9-----9-----9-----9-----9--10--9--7--|
|------7-----7-----7-----7---------------|
|*---------------------------------------|
|----------------------------------------|


                                             
-------------------------------------------||
-----------------------7-----7--10--9--7--*||
--10-----10-----10-------------------------||
------8------8------8-----8---------------*||
-------------------------------------------||


                                           
------------------------------------------|
-----------------------7-----7--10--9--7--|
--10-----10-----10------------------------|
------8------8------8-----8---------------|
------------------------------------------|


                                             
--10-----10--8------------------------------|
------7---------10--9--10-----10--7--9--10--|
---------------------------8----------------|
--------------------------------------------|
--------------------------------------------|


                                              
----------------------11--10-----10--8-------|
--12------12--12--14----------7-----------9--|
------10----------------------------------9--|
------------------------------------------7--|
---------------------------------------------|


                                                                      
--------------------------------------|------------------------------|
--------------------------------------|------------------------------|
-----------------8-----------------7--|--7-----7--7--5---------------|
--------------5-----------------4-----|-----5-----------8--8----7----|
--6--6--6--6--------5--5--5--5--------|------------------------------|


                                                                      
----------------------------------|----------------------------------|
----------------------------------|----------------------------------|
----------------------------------|----------------------------------|
--8-8-8-8-8-8-8-8-8-8-8-8-8-8-8-8-|--7-7-7-7-7-7-7-7-7-7-7-7-7-7-7-7-|
----------------------------------|----------------------------------|


                                                                      
----------------------------------|----------------------------------|
----------------------------------|----------------------------------|
--7-7-7-7-7-7-7-7-7-7-7-7-7-7-7-7-|----------------------------------|
----------------------------------|--7-7-7-7-7-7-7-7-7-7-7-7-7-7-7-7-|
----------------------------------|----------------------------------|


                                                                          
------------------------------------|------------------------------------|
------------------------------------|------------------------------------|
------------------------------------|------------------------------------|
--8-8-8-8-8-8-8-8-8-8-8-8-10-10-8-7-|--8-8-8-8-8-8-8-8-8-8-8-8-10-10-8-7-|
------------------------------------|------------------------------------|


                                   
----------------------------------|
----------------------------------|
--7-7-7-7-7-7-7-7-7-7-7-7-7-7-7-7-|
----------------------------------|
----------------------------------|


                                                                       
--10-10-10-10-10-10-10-10-10-10-10-10-10-10-10-10-|-------------------|
--------------------------------------------------|-------------------|
--------------------------------------------------|-------------------|
--------------------------------------------------|--5----------------|
--------------------------------------------------|-------------------|


                                                                                
-------------------|-------------------|-------------------|-------------------|
-------------------|-------------------|-------------------|-------------------|
-------------------|-------------------|-------------------|-------------------|
--5----------------|--0----------------|--0----------------|-------------------|
-------------------|-------------------|-------------------|--1----------------|


                                                                                
-------------------|-------------------|-------------------|-------------------|
-------------------|-------------------|-------------------|-------------------|
-------------------|-------------------|-------------------|-------------------|
-------------------|--0----------------|--0----------------|--5----------------|
--1----------------|-------------------|-------------------|-------------------|


                                                                                
-------------------|-------------------|-------------------|-------------------|
-------------------|-------------------|-------------------|-------------------|
-------------------|-------------------|-------------------|-------------------|
--5----------------|--0----------------|--0----------------|-------------------|
-------------------|-------------------|-------------------|--1----------------|


                                                            
-------------------|-------------------|-------------------|
-------------------|-------------------|-------------------|
-------------------|-------------------|-------------------|
-------------------|--0----------------|--0----------------|
--1----------------|-------------------|-------------------|


                                                      
--------------------------|--------------------------|
--------------------------|--------------------------|
--------------------------|--------------------------|
--5--5--5--5--5--5--5--5--|--5--5--5--5--5--5--5--5--|
--------------------------|--------------------------|


                                                      
--------------------------|--------------------------|
--------------------------|--------------------------|
--------------------------|--------------------------|
--0--0--0--0--0--0--0--0--|--0--0--0--0--0--0--0--0--|
--------------------------|--------------------------|


                                                      
--------------------------|--------------------------|
--------------------------|--------------------------|
--------------------------|--------------------------|
--------------------------|--------------------------|
--1--1--1--1--1--1--1--1--|--1--1--1--1--1--1--1--1--|


                                                      
--------------------------|--------------------------|
--------------------------|--------------------------|
--------------------------|--------------------------|
--0--0--0--0--0--0--0--0--|--0--0--0--0--0--0--0--0--|
--------------------------|--------------------------|


                                                      
--------------------------|--------------------------|
--------------------------|--------------------------|
--------------------------|--------------------------|
--5--5--5--5--5--5--5--5--|--5--5--5--5--5--5--5--5--|
--------------------------|--------------------------|


                                                      
--------------------------|--------------------------|
--------------------------|--------------------------|
--------------------------|--------------------------|
--0--0--0--0--0--0--0--0--|--0--0--0--0--0--0--0--0--|
--------------------------|--------------------------|


                                                      
--------------------------|--------------------------|
--------------------------|--------------------------|
--------------------------|--------------------------|
--------------------------|--------------------------|
--1--1--1--1--1--1--1--1--|--1--1--1--1--1--1--1--1--|


                                                                          
--------------------------|--------------------------|-------------------|
--------------------------|--------------------------|-------------------|
--------------------------|--------------------------|-------------------|
--0--0--0--0--0--0--0--0--|--0--0--0--0--0--0--0--0--|--5----------------|
--------------------------|--------------------------|-------------------|


                                                                                
-------------------|-------------------|-------------------|-------------------|
-------------------|-------------------|-------------------|-------------------|
-------------------|-------------------|-------------------|-------------------|
--5----------------|--0----------------|--0----------------|-------------------|
-------------------|-------------------|-------------------|--1----------------|


                                                                                
-------------------|-------------------|-------------------|-------------------|
-------------------|-------------------|-------------------|-------------------|
-------------------|-------------------|-------------------|-------------------|
-------------------|--0----------------|--0----------------|--5----------------|
--1----------------|-------------------|-------------------|-------------------|


                                                                                
-------------------|-------------------|-------------------|-------------------|
-------------------|-------------------|-------------------|-------------------|
-------------------|-------------------|-------------------|-------------------|
--5----------------|--0----------------|--0----------------|-------------------|
-------------------|-------------------|-------------------|--1----------------|


                                                            
-------------------|-------------------|-------------------|
-------------------|-------------------|-------------------|
-------------------|-------------------|-------------------|
-------------------|--0----------------|--0----------------|
--1----------------|-------------------|-------------------|


                                                      
--------------------------|--------------------------|
--------------------------|--------------------------|
--------------------------|--------------------------|
--5--5--5--5--5--5--5--5--|--5--5--5--5--5--5--5--5--|
--------------------------|--------------------------|


                                                      
--------------------------|--------------------------|
--------------------------|--------------------------|
--------------------------|--------------------------|
--0--0--0--0--0--0--0--0--|--0--0--0--0--0--0--0--0--|
--------------------------|--------------------------|


                                                      
--------------------------|--------------------------|
--------------------------|--------------------------|
--------------------------|--------------------------|
--------------------------|--------------------------|
--1--1--1--1--1--1--1--1--|--1--1--1--1--1--1--1--1--|


                                                      
--------------------------|--------------------------|
--------------------------|--------------------------|
--------------------------|--------------------------|
--0--0--0--0--0--0--0--0--|--0--0--0--0--0--0--0--0--|
--------------------------|--------------------------|


                                                      
--------------------------|--------------------------|
--------------------------|--------------------------|
--------------------------|--------------------------|
--5--5--5--5--5--5--5--5--|--5--5--5--5--5--5--5--5--|
--------------------------|--------------------------|


                                                      
--------------------------|--------------------------|
--------------------------|--------------------------|
--------------------------|--------------------------|
--0--0--0--0--0--0--0--0--|--0--0--0--0--0--0--0--0--|
--------------------------|--------------------------|


                                                      
--------------------------|--------------------------|
--------------------------|--------------------------|
--------------------------|--------------------------|
--------------------------|--------------------------|
--1--1--1--1--1--1--1--1--|--1--1--1--1--1--1--1--1--|


                                                                          
--------------------------|--------------------------|-------------------|
--------------------------|--------------------------|-------------------|
--------------------------|--------------------------|-------------------|
--0--0--0--0--0--0--0--0--|--0--0--0--0--0--0--0--0--|--5----------------|
--------------------------|--------------------------|-------------------|


                                                                              
------------------|-------------------|------------------|-------------------|
------------------|-------------------|------------------|-------------------|
------------------|-------------------|------------------|-------------------|
------------------|--0----------------|------------------|--5----------------|
------------------|-------------------|------------------|-------------------|


                                                          
------------------|-------------------|------------------|
------------------|-------------------|------------------|
------------------|-------------------|------------------|
------------------|--0----------------|------------------|
------------------|-------------------|------------------|


                          
------------------------||
------------------------||
------------------------||
--5--------5-5-5-5-5----||
------------------------||





Comments


Popular Dark Tranquillity tabs & chords
Auctioned Bass Tabs
Fabric Tabs
Freecard Tabs
In Tears Bereaved Tabs
Rundown Tabs
Scyth Rage And Roses Tabs
Silence, And The Firmament Withdrew Tabs
The Dividing Line Tabs
The Emptiness From Which I Fed Tabs
Tidal Tantrum Tabs


Song lyrics



↑ Back to top | Tablatures and chords are parodies/interpretations of the original songs. You may use it for private study, scholarship, research or language learning purposes only
© 2014 AZChords.com Contact us | Privacy policy | DMCA | Add/correct tabs | Request tabs | Top 50 tabs