>
 >
Punish My Heaven

Punish My Heaven Guitar Tabs

Dark Tranquillity - Punish My Heaven chords, tabs, tablatures, lyrics

Guitar lessons | Add/correct | Request | Top 50 tabs Artists:  A B C D E F G H I J K L M N O P Q R S T U V W X Y Z 0-9

Punish My Heaven Guitar Tabs – Dark Tranquillity

CD, Sheet music, Poster

Do you like Punish My Heaven? Share with your friends now
Bass TabsTabs
Dark Tranquillity - Punish My Heaven
taken from CHAOS THEORY magasine

Intro 0:00 - 0:16
|-------------------------5-0-7-0-8-7-8-0-7-5-7-0-5--------5-------|
|-5-4-5-0-7-5-7-0-8-7-8-0---------------------------8-7-8----8-7-0-|
|------------------------------------------------------------------| GTR I
|------------------------------------------------------------------|
|------------------------------------------------------------------|
|------------------------------------------------------------------|
|                                                                  |
|------------------------------------------------------------------|
|------------------------------------------------------------------|
|------------------------------------------------------------------| GTR II
|-------------------------7---9--10-9-10--9-7-9---7----------------|
|-7-6-7---9-7-9--10-9-10---------------------------10-9-7-10-9-7-7-|
|------------------------------------------------------------------|


|-------------------------5-0-7-0-8-7-8-0-7-5-7-0-5----------------|
|-5-4-5-0-7-5-7-0-8-7-8-0---------------------------8-7-8-5~-------|
|------------------------------------------------------------------| GTR I
|------------------------------------------------------------------|
|------------------------------------------------------------------|
|------------------------------------------------------------------|
|                                                                  |
|------------------------------------------------------------------|
|------------------------------------------------------------------|
|------------------------------------------------------------------| GTR II
|-------------------------7---9--10-9-10--9-7-9---7----------------|
|-7-6-7---9-7-9--10-9-10---------------------------10-9-10-7~------|
|------------------------------------------------------------------|


|-------------------------5-0-7-0-8-7-8-0-7-5-7-0-5--------5-------|
|-5-4-5-0-7-5-7-0-8-7-8-0---------------------------8-7-8----8-7-0-|
|------------------------------------------------------------------| GTR I
|------------------------------------------------------------------|
|------------------------------------------------------------------|
|------------------------------------------------------------------|
|                                                                  |
|------------------------------------------------------------------|
|------------------------------------------------------------------|
|------------------------------------------------------------------| GTR II
|-------------------------7-7-9-910101010-9-9-9-9-7----------------|
|-7-7-7-7-9-9-9-910101010--------------------------10-9-10-7-------|
|------------------------------------------------------------------|


|-------------------------5-0-7-0-8-7-8-0-7-5-7-0-5----------------|
|-5-4-5-0-7-5-7-0-8-7-8-0---------------------------8-7-8-5~-------|
|------------------------------------------------------------------| GTR I
|------------------------------------------------------------------|
|------------------------------------------------------------------|
|------------------------------------------------------------------|
|                                                                  |
|------------------------------------------------------------------|
|------------------------------------------------------------------|
|------------------------------------------------------------------| GTR II
|-------------------------7-7-9-910101010-9-9-9-9-7----------------|
|-7-7-7-7-9-9-9-910101010--------------------------10-9-10-7~------|
|------------------------------------------------------------------|

(play 4 times) 0:16 - 0:23
||-7-10-0-8-0-5h7-0-5-8-0-7-0-3h5-0-||
||----------------------------------||
||*--------------------------------*|| GTR I &
||*--------------------------------*|| GTR II
||----------------------------------||
||----------------------------------||

0:23 - 0:30
|-------------------------5-0-7-0-8-7-8-0-7-5-7-0-5--------5-------|
|-5-4-5-0-7-5-7-0-8-7-8-0---------------------------8-7-8----8-7-0-|
|------------------------------------------------------------------|
|------------------------------------------------------------------| GTR I
|------------------------------------------------------------------|
|------------------------------------------------------------------|
|                                                                  |
|------------------------------------------------------------------|
|------------------------------------------------------------------|
|----------------------------------------------------------0-------| GTR II
|-------------------------7-7-9-910101010-9-9-9-9-7--------0-------|
|-7-7-7-7-9-9-9-910101010--------------------------10-9-10-7-------|
|------------------------------------------------------------------|


|-------------------------5-0-7-0-8-7-8-0-7-5-7-0-5----------------|
|-5-4-5-0-7-5-7-0-8-7-8-0---------------------------8-7-8-5~-------|
|------------------------------------------------------------------| GTR I
|------------------------------------------------------------------|
|------------------------------------------------------------------|
|------------------------------------------------------------------|
|                                                                  |
|------------------------------------------------------------------|
|------------------------------------------------------------------|
|------------------------------------------------------------------| GTR II
|-------------------------7-7-9-910101010-9-9-9-9-7----------------|
|-7-7-7-7-9-9-9-910101010--------------------------10-9-10-7~------|
|------------------------------------------------------------------|

0:30 - 0:34
|------------------------------------------------------------------|
|------------------------------------------------------------------|
|------------------------------------------------------------------| GTR II
|---------7-7-------------7-7-------------7-7---------h-p----------|
|-5-5-8-8-----8-8-5-5-7-7-----7-7-4-4-7-7-----7-7-8--7-8-7---------|
|----------------------------------------------------------10-9~---|
|                                                                  |
|------------------------------------------------------------------|
|------------------------------------------------------------------|
|------------------------------------------------------------------| GTR II
|---------7-7-------------7-7-------------7-7---------h-p----------|
|-5-5-8-8-----8-8-5-5-7-7-----7-7-4-4-7-7-----7-7-8--7-8-7---------|
|----------------------------------------------------------10-9~---|

(0:34 - 0:41)
Riff A 
|----------------------------------|----------------------------------|
|----------------------------------|----------------------------------|
|----------------------------------|----------------------------------| GTR I
|-0-0-8-8-8-8-5-5-5-5-7-7-7-7-7-7--|-0-0-8-8-8-8-5-5-5-5-7-7-7-7-8-8--|
|----------------------------------|----------------------------------|
|----------------------------------|----------------------------------|
|                                                                     |
|----------------------------------|----------------------------------|
|----------------------------------|------------------------h-p-------|
|-----7---10---7---8-\-7--5-/-7-7~-|------7---10---7----8--7-8-7------| GTR II
|-0-8---8----8---8-----------------|--0-8---8----8---8-----------10-8-|
|----------------------------------|----------------------------------|
|----------------------------------|----------------------------------|

                                                       (end of Riff A)
|----------------------------------|----------------------------------|
|----------------------------------|----------------------------------|
|----------------------------------|----------------------------9ph~--| GTR I
|-3-3-3-3-3-3-3-3-2-2-2-2-2-2-2-2--|--3-3-3-3-3-3-3-3-2-2-2-2---------|
|-5-5-5-5-5-5-5-5-3-3-3-3-3-3-3-3--|--5-5-5-5-5-5-5-5-3-3-3-3---------|
|----------------------------------|----------------------------------|
|                                                                     |
|----------------------------------|----------------------------------|
|----------------------------------|----------------------------------|
|----------------------------------|----------------------------------| GTR II
|-----7---10---7---8-\-7--5-/-7-7~-|------------------5/7-7~---775----|
|-0-8---8----8---8-----------------|--8-8-8-8-8-8-8-8-------------875-|
|----------------------------------|----------------------------------|

0:41 - 0:44
|------------------------------------------------------------------|
|------------------------------------------------------------------|
|------------------------------------------------------------------| GTR I
|---------7-7-------------7-7-------------7-7---------h-p----------|
|-5-5-8-8-----8-8-5-5-7-7-----7-7-4-4-7-7-----7-7-8--7-8-7---------|
|----------------------------------------------------------10-9~---|
|                                                                  |
|------------------------------------------------------------------|
|------------------------------------------------------------------|
|-----------------------------------------------------h-p----------| GTR II
|---------7-7-------------7-7-------------7-7-----7--5-7-5---------|
|-5-5-8-8-----8-8-5-5-7-7-----7-7-4-4-7-7-----7-7----------8-7~----|
|------------------------------------------------------------------|

0:44 - 0:49
|---------------------------------|
|---------------------------------|
|-7-7-7-7---------7-7-7-7-9-9-9-9-| GTR I
|---------7-7-7-7-----------------|
|---------------------------------|
|---------------------------------|
|                                 |
|---------------------------------|
|---------------------------------|
|---------------------------------| GTR II
|---------7-7-------------7-7-----|
|-5-5-8-8-----8-8-5-5-7-7-----7-7-|
|---------------------------------|


|----------------------------------------------------|
|---------6-6-8-8-6-6----------------------------8~--|
|-7-7-9-9-------------9-9-7-7-6-6-7~----6~--7~-------| GTR I
|----------------------------------------------------|
|----------------------------------------------------|
|----------------------------------------------------|
|                                                    |
|----------------------------------------------------|
|----------------------------------------------------|
|------------------------------------------------5~--| GTR II
|-7-7-5-5-----------------------------8-7~--8~-------|
|---------8-8-7-7-8-7-8-7-5-5-4-4-5~-----------------|
|----------------------------------------------------|

(0:49 - 0:56)
Riff B                                                       (end of Riff B)
||---------------------------------------------------------------------------||
||---------------------------------------------------------------------------||
||*-9~---9~-9~--9~--9-9-9-9-9-9-10-9-7-------------------7-7-7-7-7-7-10-9-7-*|| GTR I
||*-------------------------------------10~--10~-10~-10~--------------------*||
||---------------------------------------------------------------------------||
||---------------------------------------------------------------------------||
||                                                                           ||
||--12----12----12----12----12-13-12-10-8-----8-----8-----10----10-13-12-10--||
||-----10----10----10----10----------------6-----6-----6-----8---------------||
||*-------------------------------------------------------------------------*|| GTR II
||*-------------------------------------------------------------------------*||
||---------------------------------------------------------------------------||
||---------------------------------------------------------------------------||

(0:56 - 1:04)
Riff C                      
|-------------------------------|-----------------------------------------|
|-------------------------------|-----------------------------------------|
|-------------------------------|-0--------0--2--3--2--------0------------| GTR I
|-7--------------7-------7-5-3--|-0-----------------3--------0----3-------|
|-5---------7----8--------------|---------------------------------5-------|
|-------------------------------|-----------------------------------------|
|           .            . . .                                            |
|                                                                         |
|-------------------------------|-----------------------------------------|
|-10---10-8---------------------|----------------11-10---10~-8~-----------|
|----7------10-9-10---10-7-9-10-|-12----12-12-14-------7----------9~------| GTR II
|-------------------8-----------|----10-----------------------------------|
|-------------------------------|-----------------------------------------|
|-------------------------------|-----------------------------------------|

                                                       (end of Riff C)
|------------------------------|------------------------------------------|
|------------------------------|------------------------------------------|
|------------------------------|------------------------------------------| GTR I
|-8--------------7-----2--3--2-|-7----7--7--5-----------------------------|
|-5--------------3-------------|--------------8--8------7~----------------|
|-6--------------5-------------|------------------------------------------|
|                      .  .  .                                            |
|                                                                         |
|------------------------------|------------------------------------------|
|---------------------------8--|-10---10-10-8-----------------------------|
|-10---10-10-9-7-9---9-9/10----|----7---------10-10-----9~----------------| GTR II
|----8-------------7-----------|------------------------------------------|
|------------------------------|------------------------------------------|
|------------------------------|------------------------------------------|

1:04 - 1:11
|----------------------------------|---------------------------------|
|----------------------------------|---------------------------------|
|-7--------------------------------|-7-------------------------------| GTR I
|-7--------------------------------|-7-------------------------------|
|-5--------------------------------|-5-------------------------------|
|----------------------------------|---------------------------------|
|                                                                    |
|----------------------------------|---------------------------------|
|----------------------------------|-----------------------h-p-------|
|-----7---10---7---8-\-7--5-/-7-7~-|------7---10---7---8--7-8-7-5----| GTR II
|-0-8---8----8---8-----------------|--0-8---8----8---8------------8--|
|----------------------------------|---------------------------------|
|----------------------------------|---------------------------------|


|----------------------------------|----------------------------------|
|----------------------------------|----------------------------------|
|-7----------------5---------------|-7--------------------------------| GTR I
|-7----------------5---------------|-7--------------------------------|
|-5----------------3---------------|-5---------------3-5-5-5-5-3-1-0--|
|----------------------------------|----------------------------------|
|                                                                     |
|----------------------------------|----------------------------------|
|----------------------------------|----------------------------------|
|----------------------------------|----------------------------------| GTR II
|-----7---10---7---8-\-7--5-/-7-7~-|------------------5/7-7~---775----|
|-0-8---8----8---8-----------------|--8-8-8-8-8-8-8-8-------------875-|
|----------------------------------|----------------------------------|

1:12 - 1:19 
Play Riff A Again

1:22 - 1:23
|------------------------------------------------------------------|
|------------------------------------------------------------------|
|------------------------------------------------------------------| GTR I
|---------7-7-------------7-7-------------7-7---------h-p----------|
|-5-5-8-8-----8-8-5-5-7-7-----7-7-4-4-7-7-----7-7-8--7-8-7---------|
|----------------------------------------------------------10-9~---|
|                                                                  |
|------------------------------------------------------------------|
|------------------------------------------------------------------|
|-----------------------------------------------------h-p----------| GTR II
|---------7-7---------5-5-7-7-------------7-7-----7--5-7-5---------|
|-5-5-8-8-----8-8-5-5---------7-7-4-4-7-7-----7-7----------8-7~----|
|------------------------------------------------------------------|

(1:23 - 1:29)
Riff D 
|--------------17----------------------17-----------|
|-----18-17-18----18-17-18----18-17-18----18-17-18--|
|--19----------------------19-----------------------| GTR I
|---------------------------------------------------| 
|---------------------------------------------------|
|---------------------------------------------------|
|                                                   |
|---------------------------------------------------|
|---------------------------------------------------|
|---------------------------------------------------| GTR II
|---7-----------------------9-/-10-\-9-/-10---------|
|---5-----------------------7-/--8-\-7-/--8---------|
|---------------------------------------------------|


|--------------17----------------------17-----------|
|-----18-17-18----18-17-18----18-17-18----20-18-17--|
|--17----------------------17-----------------------|
|---------------------------------------------------| GTR I
|---------------------------------------------------|
|---------------------------------------------------|
|                                                   |
|---------------------------------------------------|
|---------------------------------------------------|
|---------------------------------------------------| GTR II
|---------------------------9-/-10-\-9-/-10---------|
|--10-----------------7-----7-/--8-\-7-/--8---------|
|---8-----------------5-----------------------------|


|--------------17----------------------17-----------|
|-----18-17-18----18-17-18----18-17-18----18-17-18--|
|--19----------------------19-----------------------| GTR I
|---------------------------------------------------|
|---------------------------------------------------|
|---------------------------------------------------|
|                                                   |
|---------------------------------------------------|
|---------------------------------------------------|
|---------------------------------------------------| GTR II
|---7-----------------------------------------------|
|---5-----------------------------------------------|
|---------------------------------------------8-----|
|                                                   |
|---------------------------------------------------|
|---------------------------------------------------|
|---------------------------------------------------| GTR III
|---------------------------------------------------|
|--------------------------------------------10-----|
|---------------------------------------------------|

                                    (end of Riff D)
|--------------17-----------------------------------|
|-----18-17-18----18-17-18-18~---17~----------------|
|--17-----------------------------------------------| GTR I
|---------------------------------------------------|
|---------------------------------------------------|
|---------------------------------------------------|
|                                                   |
|---------------------------------------------------|
|---------------------------------------------------|
|---------------------------------------------------| GTR II
|---------------------------------------------------|
|----~----~----~------------------------------------|
|---8-/-10---10-------------------------------------|
|                                                   |
|---------------------------------------------------|
|---------------------------------------------------|
|---------------------------------------------------| GTR III
|----~----~----~pinch harmonic----------------------|
|--10-/-12---12-------------------------------------|
|---------------------------------------------------|

1:30 - 1:44
|------------------------|----------------------------|
|---------------------8--|---------10-8h10p8----------|
|-7~----7--10-9-10~------|-9~---------------10---9~---| GTR I
|------------------------|----------------------------|
|------------------------|----------------------------|
|------------------------|----------------------------|
|                                                     |
|------------------------|----------------------------|
|---------------------8--|----------10-8-10-8---------|
|-7~-------10-9-10~------|-9~9~9~9~----------10--9~---| GTR II
|------------------------|----------------------------|
|------------------------|----------------------------|
|------------------------|----------------------------|


|------------------------|----------------------------|
|---------------------8--|---------10-8h10p8----------|
|-7~----7--10-9-10~------|-9~---------------10---9~---| GTR I
|------------------------|----------------------------|
|------------------------|----------------------------|
|------------------------|----------------------------|
|                                                     |
|------------------------|----------------------------|
|---------------------8--|----------10-8-10-8---------|
|-7~-------10-9-10~------|-9~----------------10--9~---| GTR II
|------------------------|----------------------------|
|------------------------|----------------------------|
|------------------------|----------------------------|


|------------------------|----------------------------|
|------------------------|----------------------------|
|------------------------|----------------------------| GTR I
|-----------7-5-7~-------|----------10-10-10-8-7------|
|-5~------------------8--|-7~---------------------10~-|
|------------------------|----------------------------|
|                                                     |
|------------------------|----------------------------|
|---------------------8--|----------10-8-10-8---------|
|-7~-------10-9-10~------|-9~----------------10--9~---| GTR II
|------------------------|----------------------------|
|------------------------|----------------------------|
|------------------------|----------------------------|


|------------------------|----------------------------|
|------------------------|----------------------------|
|------------------------|----------------------------| GTR I
|-----------7-5-7~-------|----------10-10-10-8-7------|
|-5~------------------8--|-7~---------------------10~-|
|------------------------|----------------------------|
|                                                     |
|------------------------|----------------------------|
|---------------------8--|----------10-8-10-8---------|
|-7~-------10-9-10~------|-9~9~9~9~----------10--9~---| GTR II
|------------------------|----------------------------|
|------------------------|----------------------------|
|------------------------|----------------------------|

(1:44 - 1:52)
Play Riff D Again

1:52 - 1:59
||--5-5-5-5~-535-5---|----------3---6~---||
||-----------------6-|-5~5~5~-56---------||
||*------------------|------------------*|| GTR I
||*------------------|------------------*||
||-------------------|-------------------||
||-------------------|-------------------||
||                                       ||
||-----------------3-|----------5353-----||
||--3~-------656~----|-5~5~5~5~-----6-5--||
||*------------------|------------------*|| GTR II
||*------------------|------------------*||
||-------------------|-------------------||
||-------------------|-------------------||

1:59 - 2:03
|-5-5-5-5~-535-5---|--------------6--------------------|
|----------------6-|-5~5~5~-5h6h8--------------------8~|
|------------------|-----------------------7~--6-7~----| GTR I
|------------------|-----------------------------------|
|------------------|-----------------------------------|
|------------------|-----------------------------------|
|                                                      |
|------------------|-----------------------------------|
|------------------|-----------------------------------|
|------------------|--------5-5-5--------------------5~| GTR II
|---------------10-|-7~-----------8--7--------87~8~----|
|-5~-------878~----|--------------------8--5~----------|
|------------------|-----------------------------------|

2:03 - 2:11
Play Riff B Again

2:11 - 2:18
Play Riff C Again

2:19 - 2:34
|------------------|------------------|------------------|------------------|
|------------------|------------------|------------------|------------------|
|------------------|------------------|-2222222222222222-|------------------| GTR I
|-3333333333333333-|-2222222222222222-|------------------|-2222222222222222-|
|------------------|------------------|------------------|------------------|
|------------------|------------------|------------------|------------------|
| ................   ................   ................   ................ |
|                                                                           |
|-1---1---0---0----|-3---3---1---1-0--|------------------|---------------0--|
|-3---3---3---3----|-3---3---3---3-0--|-1---1---0---0----|-3---3---1---1-0--|
|-2---2---2---2----|-2---2---2---2-0--|-2---2---2---2----|-2---2---2---2-0--| GTR II
|-0---0---0---0----|-0---0---0---0-2--|-2---2---2---2----|-2---2---2---2-2--|
|------------------|------------------|-0---0---0---0----|-0---0---0---0----|
|------------------|------------------|------------------|------------------|


|------------------|------------------|------------------|-5555555555555555-|
|------------------|------------------|------------------|-5555555555555555-|
|------------------|------------------|-2222222222222222-|-2222222222222222-| GTR I
|-3333333333335532-|-3333333333335532-|------------------|------------------|
|------------------|------------------|------------------|------------------|
|------------------|------------------|------------------|------------------|
| ................   ................   ................   ................ |
|                                                                           |
|-0---0---0---0----|-0---0---0---0-0--|------------------|-0---0---0---0----|
|-1---1---0---0----|-3---3---1---1-0--|-1---1---0---0----|-3---3---1---1----|
|-2---2---2---2----|-2---2---2---2-0--|-2---2---2---2----|-2---2---2---2----| GTR II
|-3---3---3---3----|-3---3---3---3-2--|-2---2---2---2----|-2---2---2---2----|
|------------------|------------------|-0---0---0---0----|-0---0---0---0----|
|------------------|------------------|------------------|------------------|

2:34 - 2:48
|------------------|------------------|------------------|-----------------------|
|------------------|-------------8----|------------------|-10----8h10p8----------|
|/7~---------------|10910-------------|-9~---------------|-------------10---9----| GTR I
|------------------|------------------|------------------|-----------------------|
|------------------|------------------|------------------|-----------------------|
|------------------|------------------|------------------|-----------------------|
|                                                                                |
|-1---1-0-----0----|-3---3-1-----1----|-0---0-0-----0----|-0---0-0----------0----|
|-3---3-3-----3----|-3---3-3-----3----|-1---1-0-----0----|-3---3-1----------1----|
|-2---2-2-----2----|-2---2-2-----2----|-2---2-2-----2----|-2---2-2----------2----| GTR II
|-0---0-0-----0----|-0---0-0-----0----|-2---2-2-----2----|-2---2-2----------2----|
|------------------|------------------|-0---0-0-----0----|-0---0-0----------0----|
|------------------|------------------|------------------|------spaced-for-tab---|


|------------------|------------------|------------------|------------------|
|-8----------------|-8----------------|-10~-10~-10~-8----|------------------|
|-----109-------10-|-----109-------10-|---------------10-|-9-----------9-10-| GTR I
|------------------|------------------|------------------|------------------| 
|------------------|------------------|------------------|------------------|
|------------------|------------------|------------------|------------------|
|                                                                           |
|-0---0-0-----0----|-0---0-0-----0----|-0---0-0-----0----|-0---0-0-----0----|
|-1---1-0-----0----|-3---3-1-----1----|-1---1-0-----0----|-3---3-1-----1----|
|-2---2-2-----2----|-2---2-2-----2----|-2---2-2-----2----|-2---2-2-----2----| GTR II
|-3---3-3-----3----|-3---3-3-----3----|-2---2-2-----2----|-2---2-2-----2----|
|------------------|------------------|-0---0-0-----0----|-0---0-0-----0----|
|------------------|------------------|------------------|------------------|

2:48 - 3:02
|------------------|------------------|------------------|----------------------|
|------------------|-------------8----|------------------|-10----8h10p8---------|
|-7~--7~------7~---|10910-------------|-9~---------------|-------------10--9----| GTR I
|------------------|------------------|------------------|----------------------|
|------------------|------------------|------------------|----------------------|
|------------------|------------------|------------------|----------------------|
|                                                                               |
| Let Ring Throughout                                                           |
|-----1-------0----|-----3-------1----|------------------|----------------------|
|---3---2---3---3--|---3---3---3---0--|-----1-------0----|-----3-----------1----|
|-2-------2--------|-2-------2--------|---2---2---2---2--|---2---2-------2---0--| GTR II
|------------------|------------------|-2-------2--------|-2-----------2--------|
|------------------|------------------|------------------|----------------------|
|------------------|------------------|------------------|---spaced-for-tab-----|


|------------------|------*-----------|------------------|------------------|
|-10~-10~-10~-10~--|10p8h10~----------|------------------|------------------|
|------------------|-------------10---|-9~------------910|-12------10ph~----| GTR I
|------------------|------------------|------------------|------------------|
|------------------|------------------|------------------|------------------|
|------------------|------------------|------------------|------------------|
|                                                                           |
| Let Ring Throughout                                                       |
|------------------|------------------|------------------|------------------|
|-----1-------0----|-----3-------1----|-----1-------0----|-----3-------1----|
|---2---2---2---2--|---2---2---2---0--|---2---2---2---2--|---2---2---2---0--| GTR II
|-3-------3--------|-3-------3--------|-2-------2--------|-2-------2--------|
|------------------|------------------|------------------|------------------|
|------------------|------------------|------------------|------------------|
*slight pinch harmonic which feedbacks on a tight vibrato

3:02 - 3:16
|-1---1-0-----0----|-3---3-1-----1-0--|------------------|---------------0--|
|-3---3-3-----3----|-3---3-3-----3-0--|-1---1-0-----0----|-3---3-1-----1-0--|
|-2---2-2-----2----|-2---2-2-----2-0--|-2---2-2-----2----|-2---2-2-----2-0--| GTR I
|-0---0-0-----0----|-0---0-0-----0-2--|-2---2-2-----2----|-2---2-2-----2-2--|
|------------------|------------------|-0---0-0-----0----|-0---0-0-----0----|
|------------------|------------------|------------------|------------------|
|                                                                           |
|-1---1-0---0------|-3---3-1-----1-0--|------------------|---------------0--|
|-3---3-3---3------|-3---3-3-----3-0--|-1---1-0---0------|-3---3-1-----1-0--|
|-2---2-2---2-2-2--|-2---2-2-----2-0--|-2---2-2---2------|-2---2-2-----2-0--| GTR II
|-0---0-0---0-0-0--|-0---0-0-----0-2--|-2---2-2---2-2-2--|-2---2-2-----2-2--|
|------------------|------------------|-0---0-0---0-0-0--|-0---0-0-----0----|
|------------------|------------------|------------------|------------------|
              . .                                   . .

|-0---0-0-----0----|-0---0-0-----0-0--|------------------|---------------0---|
|-1---1-0-----0----|-3---3-1-----1-0--|-1---1-0-----0----|-3---3-1-----1-0---|
|-2---2-2-----2----|-2---2-2-----2-0--|-2---2-2-----2----|-2---2-2-----2-0---| GTR I
|-3---3-3-----3----|-3---3-3-----3-2--|-2---2-2-----2----|-2---2-2-----2-2---|
|------------------|------------------|-0---0-0-----0----|-0---0-0-----0-----|
|------------------|------------------|------------------|-------------------|
|                                                                            |
|-0---0-0---0------|-0---0-0-----0-0--|------------------|-12"--------12~12~\|
|-1---1-0---0------|-3---3-1-----1-0--|-1---1-0-----0----|--tremolo----------|
|-2---2-2---2-2-2--|-2---2-2-----2-0--|-2---2-2-----2----|----twelve---------| GTR II
|-3---3-3---3-3-3--|-3---3-3-----3-2--|-2---2-2-----2----|------times--------|
|------------------|------------------|-0---0-0-----0----|-------------------|
|------------------|------------------|------------------|-------------------|
              . .

3:16 - 3:30
  Let Ring Throughout                                              
|-----1-------0----|-----3-------1----|------------------|------------------|
|---3---2---3---3--|---3---3---3---0--|-----1-------0----|-----3-------1----|
|-2-------2--------|-2-------2--------|---2---2---2---2--|---2---2---2---0--| GTR I
|------------------|------------------|-2-------2--------|-2-------2--------|
|------------------|------------------|------------------|------------------|
|------------------|------------------|------------------|------------------|
|                                                                           |
|-1---1-0-----0-3--|(3)--3-3-333p1-0--|------------------|---------------0--|
|-3---3-3-----3----|-----------------0|-1---1-0---0------|-3---3-1-----1-0--|
|-2---2-2-----2----|------------------|-2---2-2---2------|-2---2-2-----2-0--| GTR II
|-0---0-0-----0----|------------------|-2---2-2---2-2-2--|-2---2-2-----2-2--|
|------------------|------------------|-0---0-0---0-0-0--|-0---0-0-----0----|
|------------------|------------------|------------------|------------------|
                                                    . .

                                       Let Ring Throughout
|------------------|------------------|------------------|------------------|
|-1---1---0---0----|-3---3---1---1-0--|-----1-------0----|-----3-------1----|
|-2-2-2-2-2-2-2-2--|-2-2-2-2-2-2-2-0--|---2---2---2---2--|---2---2---2---0--| GTR II
|---3---3---3---3--|---3---3---3------|-2-------2--------|-2-------2--------|
|------------------|------------------|------------------|------------------|
|------------------|------------------|------------------|------------------| 
|   .   .   .   .      .   .   .                                            |
|                                                                           |
|------------------|------------------|-0---0-0-----0----|-0---0-0-----0----|
|-1---1---0---0----|-3---3---1---1-0--|-1---1-0-----0----|-3---3-1-----1----|
|-2-2-2-2-2-2-2-2--|-2-2-2-2-2-2-2-0--|-2---2-2-----2----|-2---2-2-----2----| GTR II
|---3---3---3---3--|---3---3---3------|-2---2-2-----2----|-2---2-2-----2----|
|------------------|------------------|-0---0-0-----0----|-0---0-0-----0----|
|------------------|------------------|------------------|------------------| 
slight palm mute----------------|

(3:30 - 3:59)
Let Ring Throughout(This Acoustic Part Is Played Underneath The Solo)
|-1-----0-----0----|-3-----1-----1----|------------------|------------------|
|---3-----3-----3--|---3-----3-----0--|-1-----0-----0----|-3-----1-----1----|
|-----2-----2------|-----2-----2------|---2-----2-----2--|---2-----2-----0--| GTR III
|------------------|------------------|-----2-----2------|-----2-----2------|
|------------------|------------------|------------------|------------------|
|------------------|------------------|------------------|------------------|

|------------------|------------------|------------------|------------------|
|-1-----0-----0----|-0-----3-----1----|-1-----0-----0----|-3-----1-----1----|
|---2-----2-----2--|---2-----2-----0--|---2-----2-----0--|---2-----2-----0--| GTR III
|-----3-----3------|-----3-----3------|-----2-----2------|-----2-----2------|
|------------------|------------------|------------------|------------------|
|------------------|------------------|------------------|------------------|

|-1-----0-----0----|-3-----1-----1----|------------------|------------------|
|---3-----3-----3--|---3-----3-----0--|-1-----0-----0----|-3-----1-----1----|
|-----2-----2------|-----2-----2------|---2-----2-----2--|---2-----2-----0--| GTR III
|------------------|------------------|-----2-----2------|-----2-----2------|
|------------------|------------------|------------------|------------------|
|------------------|------------------|------------------|------------------|

                                           (end of Acoustic Underneath Part)
|------------------|-------------0----|------------------|------------------|
|-1-----0-----0----|-0-----3-----1----|-1-----0-----0----|-3----------------|
|---2-----2-----2--|---2-----2--------|---2-----2-----0--|-2----------------| GTR III
|-----3-----3------|-----3-----3------|-----2-----2------|-2----------------|
|------------------|------------------|------------------|------------------|
|------------------|------------------|------------------|------------------|

3:30 - 3:36
Solo
|-------/10-10~---15-|-13--13p12p1012--15--13--13p12p1012--17-|-15-13-15---12~\-
|-/10~---------------|----------------------------------------|-----------------
|--------------------|----------------------------------------|----------- GTR I
|--------------------|----------------------------------------|-----------------
|--------------------|----------------------------------------|-----------------
|--------------------|----------------------------------------|-----------------
                                                                               
|--------------------|----------------------------------------|-----------------
|-----------------8--|------------------------------------10--|-----------------
|-------/7--7~-------|-10---9-7-9------12--10--10p9p7-9-------|-12-10-12----9~--
|-/7~----------------|----------------------------------------|-----------------
|--------------------|----------------------------------------|-----------------
|--------------------|----------------------------------------|-----------------

3:36 - 3:45
|----------------------------|-----------------------------------|
|------------------------13--|-13--10h13-10\-8--10--11\10-8--10--|
|----9--10--9h10p9-7--9------|-----------------------------------| GTR I
|-7--------------------------|-----------------------------------|
|----------------------------|-----------------------------------|
|----------------------------|-----------------------------------|
|                                                                |
|----------------------------|-----------------------------------|
|------------------------10--|-10--------------------------------|
|----9--10--9h10p9-7--9--9---|-9---12--10h12-9--10--12p10-9--10--| GTR II
|-7--------------------------|-----------------------------------|
|----------------------------|-----------------------------------|
|----------------------------|-----------------------------------|


|----------------------------|------------------------------|-------------------
|-10--10\8-6--8\6-5--5-----5-|-10--10--8--8--6/8-6--5--5/6--|-8---6--5/6\5-3-5~-
|-----------------------5----|------------------------------|-------------------
|----------------------------|------------------------------|-------------------
|----------------------------|------------------------------|-------------------
|----------------------------|------------------------------|-------------------

|----------------------------|------------------------------|-------------------
|----------------------------|-10--10--8--8--6h8-6--5--5----|-6h8-6--5h6-5-3-5~-
|-10--10--7h9-7---5--5-----5-|------------------------------|-------------------
|-----------------------7----|------------------------------|-------------------
|----------------------------|------------------------------|-------------------
|----------------------------|------------------------------|-------------------

3:45 - 3:52
|---17-------15--12/15-|-17~---\|---12-------10--8/10--|-12~---13--12~---------|
|------18-15-----------|--------|------13-10-----------|-----------------------|
|----------------------|--------|----------------------|-----------------------| GTR I
|----------------------|--------|----------------------|-----------------------|
|----------------------|--------|----------------------|-----------------------|
|----------------------|--------|----------------------|-----------------------|
|                                                                              |
|----------------------|--------|----------------------|-----------------------|
|---10------8--8--6--8-|-10~---\|----------------------|-----------------------|
|------10-7------------|--------|---9-------7--7--5--7-|-9-----9/10-9~-----9~--| GTR II
|----------------------|--------|-----10--7------------|-----------------------|
|----------------------|--------|----------------------|-----------------------|
|----------------------|--------|----------------------|-----------------------|

3:52 - 3:59
|------------------|-------------10~-|-12~----/-|-24-24-24-24-24-24-24-24-\-|
|-10~-10~-10~-10~--|-13~-13~-13~-----|----------|---------------------------|
|------------------|-----------------|----------|---------------------------| GTR I
|------------------|-----------------|----------|---------------------------|
|------------------|-----------------|----------|---------------------------|
|------------------|-----------------|----------|---------------------------|
|                                                                           |
|------------------|-----------------|----------|-24-24-24-24-24-24-24-24-\-|
|------------------|-----------------|----------|---------------------------|
|-10~-10~-10~------|/14~/17~-----16~-|-14~------|---------------------------| GTR II
|------------------|-----------------|----------|---------------------------|
|------------------|-----------------|----------|---------------------------|
|------------------|-----------------|----------|---------------------------|

4:00 - 4:13
|------------------|------------------|------------------|------------------|
|------------------|------------------|------------------|------------------|
|------------------|------------------|------------------|------------------| GTR I
|-7-7-7-7----------|-7-7-7-7-5--------|------------------|------------------|
|-5-5-5-5-8-7-7-5--|-5-5-5-5---8-8-7--|-7-7-7-7----------|-7-7-7-7-5--------|
|------------------|------------------|-5-5-5-5-8-7-7-5--|-5-5-5-5---8-8-7--|
| . . . .            . . . .            . . . .            . . . .          |
|                                                                           |
|-1-1-----0-0------|-3-3-----1-1---10-|------------------|----------------0-|
|-3-3-----3-3------|-3-3-----3-3---30-|-1-1-----0-0------|-3-3-----1-1---10-|
|-2-2-2-2-2-2-2-2--|-2-2-2-2-2-2-2-20-|-2-2-----2-2------|-2-2-----2-2---20-| GTR II
|-0-0-0-0-0-0-0-0--|-0-0-0-0-0-0-0-02-|-2-2-2-2-2-2-2-2--|-2-2-2-2-2-2-2-22-|
|------------------|------------------|-0-0-0-0-0-0-0-0--|-0-0-0-0-0-0-0-0--|
|------------------|------------------|------------------|------------------|
      . .     . .        . .     .          . .     . .        . .     .

|------------------|------------------|------------------|------------------|
|------------------|------------------|------------------|------------------|
|------------------|------------------|------------------|------------------| GTR I
|------------------|------------------|------------------|------------------|
|-3-3-3-3-3-2-2-3--|-3-3-3-3-5-3-3-2--|-7-7-7-7----------|-7-7-7-7-5--------|
|-1-1-1-1----------|-1-1-1-1----------|-5-5-5-5-8-7-7-8--|-5-5-5-5---8-8-7--|
| . . . .            . . . .   .        . . . .            . . . .          |
|                                                                           |
|-0-0-----0-0------|-0-0-----0-0---00-|------------------|-12"-------12~-12~|
|-1-1-----0-0------|-3-3-----1-1---10-|-1-1-----0-0---0--|-tremolo----------|
|-2-2-2-2-2-2-2-2--|-2-2-2-2-2-2-2-20-|-2-2-----2-2---2--|----twelve--------| GTR II
|-3-3-3-3-3-3-3-3--|-3-3-3-3-3-3-3-32-|-2-2-2-2-2-2-2-2--|------times-------|
|------------------|------------------|-0-0-0-0-0-0-0-0--|------------------|
|------------------|------------------|------------------|------------------|
      . .     . .        . .     .          . .     .                    

4:14 - 4:27
|------------------|-------------------|------------------|------------------|
|------------------|-------------------|------------------|------------------|
|------------------|-------------------|------------------|------------------| GTR I
|-7-7-7-7----------|-7-7-7-7-5---------|------------------|------------------|
|-5-5-5-5-8-7-7-5--|-5-5-5-5---8-8-7---|-7-7-7-7----------|-7-7-7-7-5--------|
|------------------|-------------------|-5-5-5-5-8-7-7-5--|-5-5-5-5---8-8-7--|
| . . . .            . . . .             . . . .            . . . .          |
|                                                                            |
|-1-1-----0-0---33-|-3-3-3-3-333p1-0---|------------------|----------------0-|
|-3-3-----3-3------|-----------------0-|-1-1-----0-0------|-3-3-----1-1---10-|
|-2-2-2-2-2-2-2----|-------------------|-2-2-----2-2------|-2-2-----2-2---20-| GTR II
|-0-0-0-0-0-0-0----|-------------------|-2-2-2-2-2-2-2-2--|-2-2-2-2-2-2-2-22-|
|------------------|-------------------|-0-0-0-0-0-0-0-0--|-0-0-0-0-0-0-0-0--|
|------------------|-------------------|------------------|------------------|
      . .     .                              . .     . .        . .     .

|------------------|------------------|------------------|------------------|
|------------------|------------------|------------------|------------------|
|------------------|------------------|------------------|------------------| GTR I
|------------------|------------------|------------------|------------------|
|-3-3-3-3-3-2-2-3--|-3-3-3-3-5-3-3-2--|-7-7-7-7----------|-7-7-7-7-5--------|
|-1-1-1-1----------|-1-1-1-1----------|-5-5-5-5-8-7-7-8--|-5-5-5-5---8-8-7--|
| . . . .            . . . .            . . . .            . . . .          |
|                                                                           |
|------------------|------------------|-0---0-0-----0----|-0---0-0-----0-0--|
|-1---1---0---0----|-3---3---1---1-0--|-1---1-0-----0----|-3---3-1-----1-0--|
|-2-2-2-2-2-2-2-2--|-2-2-2-2-2-2-2-0--|-2---2-2-----2----|-2---2-2-----2-2--| GTR II
|---3---3---3---3--|---3---3---3------|-2---2-2-----2----|-2---2-2-----2-2--|
|------------------|------------------|-0---0-0-----0----|-0---0-0-----0-0--|
|------------------|------------------|------------------|------------------| 
slight palm mute ---------------|

4:28 - 4:44
|-------------------------------------------------------------------------|
|-------------------------------------------------------------------------|
|-/7-----7--7-----------------7--9----------------------------2-----/-----| GTR I
|--------------------------------------7----7--7--------------------------|
|-/5-----5--5-----------------5--7----------------------------0-----/-----|
|--------------------------------------5----5--5--------------------------|
|                                                                         |
|--1-----------------------------------0----------------------------------|
|--3-----------------------------------1----------------------------------|
|--2-----------------------------------2----------------------------------| GTR II
|--0-----------------------------------2----------------------------------|
|--------------------------------------0----------------------------------|
|-------------------------------------------------------------------------|
|                                                                         |
|-17----------------17-------15-------12----------------13-------12-------|
|----18-17-15-17-18----18-17----17-18----13-12-10-12-13----13-12----10-12-|
|-------------------------------------------------------------------------| PIANO
|-piano arranged for guitar-----------------------------------------------|
|-------------------------------------------------------------------------|
|-------------------------------------------------------------------------|


|-------------------------------------------------------------------------|
|-------------------------------------------------------------------------|
|-/7--------7---------------------------------14--------------------------| GTR I
|--------7-----------7---------------------14--------------14--------14---|
|-/5--------------------5-------------12----------------------------------|
|-------------------------------------------------------------------------|
|                                                                         |
|--1-----------------------------------0----------------------------------|
|--3-----------------------------------1----------------------------------|
|--2-----------------------------------2----------------------------------| GTR II
|--0-----------------------------------2----------------------------------|
|--------------------------------------0----------------------------------|
|-------------------------------------------------------------------------|
|                                                                         |
|-17----------------17-------15-------12----------------13-------12-------|
|----18-17-15-17-18----18-17----17-18----13-12-10-12-13----13-12----10-12-|
|-------------------------------------------------------------------------| PIANO
|-------------------------------------------------------------------------|
|-------------------------------------------------------------------------|
|-------------------------------------------------------------------------|


|--------------------|
|--------------------|
|--------------------| GTR I
|-12---121212121212--|
|--------------------|
|--------------------|
|                    |
|--1----1-1-1-1-1-1--|
|--3----3-3-3-3-3-3--|
|--2----2-2-2-2-2-2--| GTR II
|--0----0-0-0-0-0-0--|
|--------------------|
|--------------------|


~*jinxx*~





Comments


Popular Dark Tranquillity tabs & chords
Away, Delight, Away Bass Tabs
Edenspring 1 Bass Tabs
Lethe Bass Tabs
A Bolt Of Blazing Gold Tabs
Damage Done Tabs
Fabric Tabs
Insanity's Crescendo Tabs
To A Bitter Halt Tabs
Tongues Tabs
With The Flaming Shades Of Fall Tabs


Song lyrics



↑ Back to top | Tablatures and chords are parodies/interpretations of the original songs. You may use it for private study, scholarship, research or language learning purposes only
© 2014 AZChords.com Contact us | Privacy policy | DMCA | Add/correct tabs | Request tabs | Top 50 tabs