>
 >
Fabric

Fabric Bass Tabs

Dark Tranquillity - Fabric chords, tabs, tablatures, lyrics

Guitar lessons | Add/correct | Request | Top 50 tabs Artists:  A B C D E F G H I J K L M N O P Q R S T U V W X Y Z 0-9

Fabric Bass Tabs – Dark Tranquillity

CD, Sheet music, Poster

Do you like Fabric? Share with your friends now
Bass TabsTabs
Tune Down

A#||-------------------------------|------------------------------|
F#||-------------------------------|------------------------------|
C#||*------------------------------|------------------------------|
G#||*------------------------------|------------------------------|
D#||---2-2--2-2-2--2-2-2--2-2-2--2-|--2-2--2-2-2--2-2-2--2-2-2--2-|
A#||-------------------------------|------------------------------|


                                                                
------------------------------|-------------------------------||
------------------------------|-------------------------------||
------------------------------|------------------------------*||
------------------------------|------------------------------*||
------------------------------|-------------------------------||
--3-3--3-3-3--3-3-3--3-3-3--3-|--3-3--3-3-3--3-3-3--3-3-3--3--||


                                                                      
----------------------------------|----------------------------------|
----------------------------------|----------------------------------|
----------------------------------|----------------------------------|
----------------------------------|--5-5-5-5-5-5-5-5-5-5-5-5-5-5-5-5-|
--2-2-2-2-2-2-2-2-2-2-2-2-2-2-2-2-|----------------------------------|
----------------------------------|--3-3-3-3-3-3-3-3-3-3-3-3-3-3-3-3-|


                                                                        
|-----------------------------------|----------------------------------|
|-----------------------------------|----------------------------------|
|*----------------------------------|----------------------------------|
|*----------------------------------|--5-5-5-3-5-5-5-5-5-5-3-5-3-5-5-5-|
|---2-2-2-2-2-2-2-2-2-2-2-2-2-2-2-2-|----------------------------------|
|-----------------------------------|--3-3-3-3-3-3-3-3-3-3-3-3-3-3-3-3-|


                                                                        
----------------------------------|-----------------------------------||
----------------------------------|-----------------------------------||
----------------------------------|----------------------------------*||
----------------------------------|----------------------------------*||
--5-5-5-5-5-5-5-5-5-5-5-5-5-5-5-5-|-----------------------------------||
----------------------------------|--5-5-5-5-5-5-5-5-5-5-5-5-5-5-5-5--||


                                                               
-----------------------------|--------------------------------|
-----------------------------|--------------------------------|
-----------------------------|--------------------------------|
--------------------------4--|--------------------------------|
-----------------------------|--5--5-5-5-5-5-5-5-5-5-5-5-5----|
--7--7-7-7-7-7-7--7-7--7-----|-----------------------------7--|


                                                            
-----------------------------|-----------------------------|
-----------------------------|-----------------------------|
-----------------------------|-----------------------------|
-----------------------------|-----------------------------|
--------------------------5--|---------------5--5-4--5--7--|
--5--5-5-5-5-5-5--5-5--5-----|--7--7-7-7-7-7---------------|


                                                                
|-------------------------------|------------------------------|
|-------------------------------|------------------------------|
|*------------------------------|------------------------------|
|*------------------------------|------------------------------|
|---2-2--2-2-2--2-2-2--2-2-2--2-|--2-2--2-2-2--2-2-2--2-2-2--2-|
|-------------------------------|------------------------------|


                                                                
------------------------------|-------------------------------||
------------------------------|-------------------------------||
------------------------------|------------------------------*||
------------------------------|------------------------------*||
------------------------------|-------------------------------||
--3-3--3-3-3--3-3-3--3-3-3--3-|--3-3--3-3-3--3-3-3--3-3-3--3--||


                                                                      
----------------------------------|----------------------------------|
----------------------------------|----------------------------------|
----------------------------------|----------------------------------|
----------------------------------|--5-5-5-5-5-5-5-5-5-5-5-5-5-5-5-5-|
--2-2-2-2-2-2-2-2-2-2-2-2-2-2-2-2-|----------------------------------|
----------------------------------|--3-3-3-3-3-3-3-3-3-3-3-3-3-3-3-3-|


                                                                        
|-----------------------------------|----------------------------------|
|-----------------------------------|----------------------------------|
|*----------------------------------|----------------------------------|
|*----------------------------------|--5-5-5-3-5-5-5-5-5-5-3-5-3-5-5-5-|
|---2-2-2-2-2-2-2-2-2-2-2-2-2-2-2-2-|----------------------------------|
|-----------------------------------|--3-3-3-3-3-3-3-3-3-3-3-3-3-3-3-3-|


                                                                                
----------------------------------|-----------------------------------||---|---|
----------------------------------|-----------------------------------||---|---|
----------------------------------|----------------------------------*||---|---|
----------------------------------|----------------------------------*||---|---|
--5-5-5-5-5-5-5-5-5-5-5-5-5-5-5-5-|-----------------------------------||---|---|
----------------------------------|--5-5-5-5-5-5-5-5-5-5-5-5-5-5-5-5--||---|---|


                                                                           
---|---|---|---|---|---|---|---|---|---|---|------------------------------|
---|---|---|---|---|---|---|---|---|---|---|------------------------------|
---|---|---|---|---|---|---|---|---|---|---|------------------------------|
---|---|---|---|---|---|---|---|---|---|---|------------------------------|
---|---|---|---|---|---|---|---|---|---|---|--2-2--2-2-2--2-2-2--2-2-2--2-|
---|---|---|---|---|---|---|---|---|---|---|------------------------------|


                                                              
------------------------------|------------------------------|
------------------------------|------------------------------|
------------------------------|------------------------------|
------------------------------|------------------------------|
--2-2--2-2-2--2-2-2--2-2-2--2-|------------------------------|
------------------------------|--3-3--3-3-3--3-3-3--3-3-3--3-|


                                                                  
------------------------------|----------------------------------|
------------------------------|----------------------------------|
------------------------------|----------------------------------|
------------------------------|----------------------------------|
------------------------------|--2-2-2-2-2-2-2-2-2-2-2-2-2-2-2-2-|
--3-3--3-3-3--3-3-3--3-3-3--3-|----------------------------------|


                                                                      
----------------------------------|----------------------------------|
----------------------------------|----------------------------------|
----------------------------------|----------------------------------|
--5-5-5-5-5-5-5-5-5-5-5-5-5-5-5-5-|----------------------------------|
----------------------------------|--2-2-2-2-2-2-2-2-2-2-2-2-2-2-2-2-|
--3-3-3-3-3-3-3-3-3-3-3-3-3-3-3-3-|----------------------------------|


                                                                      
----------------------------------|----------------------------------|
----------------------------------|----------------------------------|
----------------------------------|----------------------------------|
--5-5-5-3-5-5-5-5-5-5-3-5-3-5-5-5-|----------------------------------|
----------------------------------|--5-5-5-5-5-5-5-5-5-5-5-5-5-5-5-5-|
--3-3-3-3-3-3-3-3-3-3-3-3-3-3-3-3-|----------------------------------|


                                                                    
----------------------------------||-------------------------------|
----------------------------------||-------------------------------|
----------------------------------||*------------------------------|
----------------------------------||*------------------------------|
----------------------------------||---2-2--2-2-2--2-2-2--2-2-2--2-|
--5-5-5-5-5-5-5-5-5-5-5-5-5-5-5-5-||-------------------------------|


                                                              
------------------------------|------------------------------|
------------------------------|------------------------------|
------------------------------|------------------------------|
------------------------------|------------------------------|
--2-2--2-2-2--2-2-2--2-2-2--2-|------------------------------|
------------------------------|--3-3--3-3-3--3-3-3--3-3-3--3-|


                                      
-------------------------------||---||
-------------------------------||---||
------------------------------*||---||
------------------------------*||---||
-------------------------------||---||
--3-3--3-3-3--3-3-3--3-3-3--3--||---||





Comments


Popular Dark Tranquillity tabs & chords
Auctioned Bass Tabs
Rundown Bass Tabs
There In Bass Tabs
Feast Of Burden Tabs
Monochromatic Stains Tabs
Of Chaos And Eternal Night Tabs
Scyth Rage And Roses Tabs
To A Bitter Halt Tabs
Undo Control Tabs
Winter Triangle Intro Tabs


Song lyrics



↑ Back to top | Tablatures and chords are parodies/interpretations of the original songs. You may use it for private study, scholarship, research or language learning purposes only
© 2014 AZChords.com Contact us | Privacy policy | DMCA | Add/correct tabs | Request tabs | Top 50 tabs