» » »

Dark Tranquillity, Fabric Tabs (ver.1)

Artists:  A B C D E F G H I J K L M N O P Q R S T U V W X Y Z # 

Fabric Tabs (ver.1)

Dark Tranquillity Tabs
 Rating:
4/5 (4 votes)
Fabric lessons Tabs too difficult? Try these video lessons and learn fast
1
                                      DARK TRANQUILLITY - FABRIC
                         From the Album Haven
                    Copyright 2000, CENTURY MEDIA
                        Version 1.0 - OCT 2000


For Questions, Comments, Newest Version, or Corrections contact me


Check Out Death Warp, With More Transcriptions On It:

..  - palm mute          /  - slide up to
 \  - slide down to      ~  - vibrato
 h  - hammer on          b  - bend
 p  - pull off            Suffixes for bend
                          ph - pinch harmonic
                           f - full bend    h - half bend
*  - see comment           r - release      t - tap bend
X  - percussion mute       ~ - vibrato bend
@  - slight palm mute     () - ghost note, sustained note

Tune Gtr to EADGBe - standard tuning

FABRIC



Riff A
|--------------------------------------------------------------------|
|--------------------------------------------------------------------|
|--------------------------------------------------------------------|Gtr 
|--------------------------------------------------------------------| I
|-7-8-7~----\3-/8~--------0----7-8-7~----\3-/8-----------------------|
|--------------------------------------------------------------------|
|                                                **                  |
|--------------------------------------------------------------------|
|--------------------------------------------------------------------|
|--------------------------------------------------------------------|Gtr 
|---------------------------------------------3----------------------| II
|----------------------------------fading in--3----------------------|
|---------------------------------------------1----------------------|



** Fill in (Gtr III)
|-------------------|
|-------------------|
|---0-2-/5-7-/10-9~-|
|-3-----------------|
|-------------------|
|-------------------|



Riff B
|--------------------------------------------------------------------|
|--------------------------------------------------------------------|
|--------------------------------------------------------------------|Gtr
|-----10-----10-----10-----10---12-10h12p10---------10------10-------| I
|-7-8----7-8----7-8----7-8----7-------------10-8-10----8-10----------|
|--------------------------------------------------------------------|
|                                                                    |
|--------------------------------------------------------------------|
|--------------------------------------------------------------------|
|--------------------------------------------------------------------|Gtr 
|-7----7----7----7----7----7----7----7--5--3----3--------------------| II
|-7----7----7----7----7----7----7----7--5--3----3--------------------|
|-5----5----5----5----5----5----5----5--3--1----1--------------------|


|--------------------------------------------------------------------|
|--------------------------------------------------------------------|
|--------------------------------------------------------------------|Gtr
|------10------10------10--------------------------------------------|I
|-8-10----8-10----8-10----10-----------------------------------------|
|--------------------------------------------------------------------|
|         **                                                         |
|--------------------------------------------------------------------|
|--------------------------------------------------------------------|
|--------------------------------------------------------------------|Gtr
|-3----3----3----3----3----3--5--7-----------------------------------|II
|-3----3----3----3----3----3--5--7-----------------------------------|
|-1----1----1----1----1----1--3--5-----------------------------------|



Bridge
|--------------------------------------------------------------------|
|--------------------------------------------------------------------|
|-2-2-2-4-4-4-4-4-4-4-4-7-7-7-7-7-2-2-2-4-4-4-4-4-4-4-4-5-5----------|Gtr I
|--------------------------------------------------------------------|
|-3-3-3-5-5-5-5-5-5-5-5-8-8-8-8-8-3-3-3-5-5-5-5-5-5-5-5-7-7----------|
|--------------------------------------------------------------------|
|                                                                    |
|--------------------------------------------------------------------|
|--------------------------------------------------------------------|
|-2--2---------------------------------------------------------------|Gtr 
|-2--2---------------------------------------------------------------|II
|-0--0---------------------------------------------------------------|
|--------------------------------------------------------------------|



Riff C
|--------------------------------------------------------------------|
|--------------------------------------------------------------------|
|-2-2-2-4-4-4-4-4-4-4-4-5-5-5-5-5-2-2-2-4-4-4-4-4-4-4-4-5-5-5-5-5----|Gtr
|--------------------------------------------------------------------|I
|-3-3-3-5-5-5-5-5-5-5-5-7-7-7-7-7-3-3-3-5-5-5-5-5-5-5-5-7-7-7-7-7----|
|--------------------------------------------------------------------|
|                                                                    |
|--------------------------------------------------------------------|
|--------------------------------------------------------------------|
|-2-2-2-2-2-2-2-2-2-2-2-2-2-2-2-2------------------------------------|Gtr
|-2-2-2-2-2-2-2-2-2-2-2-2-2-2-2-2-3-3-3-3-3-3-3-3-3-3-3-3-3-3-3-3----|II
|-0-0-0-0-0-0-0-0-0-0-0-0-0-0-0-0-3-3-3-3-3-3-3-3-3-3-3-3-3-3-3-3----|
|---------------------------------1-1-1-1-1-1-1-1-1-1-1-1-1-1-1-1----|


|--------------------------------------------------------------------|
|--------------------------------------------------------------------|
|-5-5-5-7-7-7-7-7-7-7-7--9--9--9--9--9-------------------------------|Gtr
|--------------------------------------------------------------------|I
|-7-7-7-8-8-8-8-8-8-8-8-10-10-10-10-10-------------------------------|
|--------------------------------------------------------------------|
|                                                                    |
|--------------------------------------------------------------------|
|--------------------------------------------------------------------|
|-5-5-5-5-5-5-5-5-5-5-5--5--5--5--5--5-------------------------------|Gtr 
|-5-5-5-5-5-5-5-5-5-5-5--5--5--5--5--5-------------------------------|II
|-3-3-3-3-3-3-3-3-3-3-3--3--3--3--3--3-------------------------------|
|--------------------------------------------------------------------|


|--------------------------------------------------------------------|
|--------------------------------------------------------------------|
|-4-----5-----7---5-----4-----5--------------------------------------|Gtr
|--------------------------------------------------------------------|I
|-55555577777788887777775555557777-----------------------------------|
|--------------------------------------------------------------------|
|  ..... ..... ... ..... ..... ...                                   |
|--------------------------------------------------------------------|
|--------------------------------------------------------------------|
|--------------------------------------------------------------------|Gtr
|-5-----5-----5---5-----5-----5--------------------------------------|II
|-5-----5-----5---5-----5-----5--------------------------------------|
|-33333333333333333333333333333333-----------------------------------|
   ..... ..... ... ..... ..... ...


Ending
|---|
|---|
|---|Gtr
|-3-|I+II
|-3-|
|-1-|



 
Bridge after keyboard part
|--------|
|--------|
|-5----4-|Gtr
|-5----5-|I+II
|-3----2-|
|------3-|

Check Out Death Warp, With More Transcriptions On It:
            
Submit corrections

comments powered by Disqus
↑ Back to top | Dark Tranquillity Tabs for Fabric. Lyrics for acoustic guitar and electric guitar. 1 Tablatures and chords are parodies/interpretations of the original songs. You may use it for private study, scholarship, research or language learning purposes only